  0
SECTION
  2
HEADER
  9
$ACADVER
  1
AC1014
  9
$ACADMAINTVER
 70
     0
  9
$DWGCODEPAGE
  3
ANSI_1252
  9
$INSBASE
 10
0.0
 20
0.0
 30
0.0
  9
$EXTMIN
 10
0.0
 20
0.0
 30
0.0
  9
$EXTMAX
 10
8.5
 20
11.0
 30
0.0
  9
$LIMMIN
 10
0.0
 20
0.0
  9
$LIMMAX
 10
12.0
 20
9.0
  9
$ORTHOMODE
 70
     0
  9
$REGENMODE
 70
     1
  9
$FILLMODE
 70
     1
  9
$QTEXTMODE
 70
     0
  9
$MIRRTEXT
 70
     1
  9
$DRAGMODE
 70
     2
  9
$LTSCALE
 40
1.0
  9
$OSMODE
 70
     0
  9
$ATTMODE
 70
     1
  9
$TEXTSIZE
 40
0.2
  9
$TRACEWID
 40
0.05
  9
$TEXTSTYLE
  7
STANDARD
  9
$CLAYER
  8
0
  9
$CELTYPE
  6
BYLAYER
  9
$CECOLOR
 62
   256
  9
$CELTSCALE
 40
1.0
  9
$DELOBJ
 70
     1
  9
$DISPSILH
 70
     0
  9
$DIMSCALE
 40
1.0
  9
$DIMASZ
 40
0.18
  9
$DIMEXO
 40
0.0625
  9
$DIMDLI
 40
0.38
  9
$DIMRND
 40
0.0
  9
$DIMDLE
 40
0.0
  9
$DIMEXE
 40
0.18
  9
$DIMTP
 40
0.0
  9
$DIMTM
 40
0.0
  9
$DIMTXT
 40
0.18
  9
$DIMCEN
 40
0.09
  9
$DIMTSZ
 40
0.0
  9
$DIMTOL
 70
     0
  9
$DIMLIM
 70
     0
  9
$DIMTIH
 70
     1
  9
$DIMTOH
 70
     1
  9
$DIMSE1
 70
     0
  9
$DIMSE2
 70
     0
  9
$DIMTAD
 70
     0
  9
$DIMZIN
 70
     0
  9
$DIMBLK
  1

  9
$DIMASO
 70
     1
  9
$DIMSHO
 70
     1
  9
$DIMPOST
  1

  9
$DIMAPOST
  1

  9
$DIMALT
 70
     0
  9
$DIMALTD
 70
     2
  9
$DIMALTF
 40
25.4
  9
$DIMLFAC
 40
1.0
  9
$DIMTOFL
 70
     0
  9
$DIMTVP
 40
0.0
  9
$DIMTIX
 70
     0
  9
$DIMSOXD
 70
     0
  9
$DIMSAH
 70
     0
  9
$DIMBLK1
  1

  9
$DIMBLK2
  1

  9
$DIMSTYLE
  2
STANDARD
  9
$DIMCLRD
 70
     0
  9
$DIMCLRE
 70
     0
  9
$DIMCLRT
 70
     0
  9
$DIMTFAC
 40
1.0
  9
$DIMGAP
 40
0.09
  9
$DIMJUST
 70
     0
  9
$DIMSD1
 70
     0
  9
$DIMSD2
 70
     0
  9
$DIMTOLJ
 70
     1
  9
$DIMTZIN
 70
     0
  9
$DIMALTZ
 70
     0
  9
$DIMALTTZ
 70
     0
  9
$DIMFIT
 70
     3
  9
$DIMUPT
 70
     0
  9
$DIMUNIT
 70
     2
  9
$DIMDEC
 70
     4
  9
$DIMTDEC
 70
     4
  9
$DIMALTU
 70
     2
  9
$DIMALTTD
 70
     2
  9
$DIMTXSTY
  7
STANDARD
  9
$DIMAUNIT
 70
     0
  9
$LUNITS
 70
     2
  9
$LUPREC
 70
     4
  9
$SKETCHINC
 40
0.1
  9
$FILLETRAD
 40
0.5
  9
$AUNITS
 70
     0
  9
$AUPREC
 70
     0
  9
$MENU
  1
.
  9
$ELEVATION
 40
0.0
  9
$PELEVATION
 40
0.0
  9
$THICKNESS
 40
0.0
  9
$LIMCHECK
 70
     0
  9
$BLIPMODE
 70
     0
  9
$CHAMFERA
 40
0.5
  9
$CHAMFERB
 40
0.5
  9
$CHAMFERC
 40
1.0
  9
$CHAMFERD
 40
0.0
  9
$SKPOLY
 70
     0
  9
$TDCREATE
 40
2450772.666465926
  9
$TDUPDATE
 40
2452793.475960648
  9
$TDINDWG
 40
0.0011680556
  9
$TDUSRTIMER
 40
0.0011680556
  9
$USRTIMER
 70
     1
  9
$ANGBASE
 50
0.0
  9
$ANGDIR
 70
     0
  9
$PDMODE
 70
     0
  9
$PDSIZE
 40
0.0
  9
$PLINEWID
 40
0.0
  9
$COORDS
 70
     1
  9
$SPLFRAME
 70
     0
  9
$SPLINETYPE
 70
     6
  9
$SPLINESEGS
 70
     8
  9
$ATTDIA
 70
     0
  9
$ATTREQ
 70
     1
  9
$HANDLING
 70
     1
  9
$HANDSEED
  5
27B
  9
$SURFTAB1
 70
     6
  9
$SURFTAB2
 70
     6
  9
$SURFTYPE
 70
     6
  9
$SURFU
 70
     6
  9
$SURFV
 70
     6
  9
$UCSNAME
  2

  9
$UCSORG
 10
0.0
 20
0.0
 30
0.0
  9
$UCSXDIR
 10
1.0
 20
0.0
 30
0.0
  9
$UCSYDIR
 10
0.0
 20
1.0
 30
0.0
  9
$PUCSNAME
  2

  9
$PUCSORG
 10
0.0
 20
0.0
 30
0.0
  9
$PUCSXDIR
 10
1.0
 20
0.0
 30
0.0
  9
$PUCSYDIR
 10
0.0
 20
1.0
 30
0.0
  9
$USERI1
 70
     0
  9
$USERI2
 70
     0
  9
$USERI3
 70
     0
  9
$USERI4
 70
     0
  9
$USERI5
 70
     0
  9
$USERR1
 40
0.0
  9
$USERR2
 40
0.0
  9
$USERR3
 40
0.0
  9
$USERR4
 40
0.0
  9
$USERR5
 40
0.0
  9
$WORLDVIEW
 70
     1
  9
$SHADEDGE
 70
     3
  9
$SHADEDIF
 70
    70
  9
$TILEMODE
 70
     1
  9
$MAXACTVP
 70
    48
  9
$PINSBASE
 10
0.0
 20
0.0
 30
0.0
  9
$PLIMCHECK
 70
     0
  9
$PEXTMIN
 10
1.000000E+20
 20
1.000000E+20
 30
1.000000E+20
  9
$PEXTMAX
 10
-1.000000E+20
 20
-1.000000E+20
 30
-1.000000E+20
  9
$PLIMMIN
 10
0.0
 20
0.0
  9
$PLIMMAX
 10
12.0
 20
9.0
  9
$UNITMODE
 70
     0
  9
$VISRETAIN
 70
     1
  9
$PLINEGEN
 70
     0
  9
$PSLTSCALE
 70
     1
  9
$TREEDEPTH
 70
  3020
  9
$PICKSTYLE
 70
     1
  9
$CMLSTYLE
  2
STANDARD
  9
$CMLJUST
 70
     0
  9
$CMLSCALE
 40
1.0
  9
$PROXYGRAPHICS
 70
     1
  9
$MEASUREMENT
 70
     0
  0
ENDSEC
  0
SECTION
  2
CLASSES
  0
CLASS
  1
LWPOLYLINE
  2
AcDbPolyline
  3
"AutoCAD"
 90
        0
280
     0
281
     1
  0
CLASS
  1
IMAGE
  2
AcDbRasterImage
  3
ISM
 90
      127
280
     0
281
     1
  0
CLASS
  1
OLE2FRAME
  2
AcDbOle2Frame
  3
""
 90
        0
280
     0
281
     1
  0
CLASS
  1
HATCH
  2
AcDbHatch
  3
"ACAD_SEDONA"
 90
        0
280
     0
281
     1
  0
CLASS
  1
DICTIONARYVAR
  2
AcDbDictionaryVar
  3
"AutoCAD"
 90
        0
280
     0
281
     0
  0
CLASS
  1
RASTERVARIABLES
  2
AcDbRasterVariables
  3
ISM
 90
        0
280
     0
281
     0
  0
CLASS
  1
IMAGEDEF
  2
AcDbRasterImageDef
  3
ISM
 90
        0
280
     0
281
     0
  0
CLASS
  1
IMAGEDEF_REACTOR
  2
AcDbRasterImageDefReactor
  3
ISM
 90
        1
280
     0
281
     0
  0
CLASS
  1
IDBUFFER
  2
AcDbIdBuffer
  3
"Acad"
 90
        0
280
     0
281
     0
  0
CLASS
  1
SPATIAL_FILTER
  2
AcDbSpatialFilter
  3
"Acad"
 90
        0
280
     0
281
     0
  0
CLASS
  1
XRECORD
  2
AcDbXrecord
  3
"<Built In>"
 90
        0
280
     0
281
     0
  0
CLASS
  1
SORTENTSTABLE
  2
AcDbSortentsTable
  3
"AutoCAD"
 90
        0
280
     0
281
     0
  0
CLASS
  1
LAYER_INDEX
  2
AcDbLayerIndex
  3
"Acad"
 90
        0
280
     0
281
     0
  0
CLASS
  1
SPATIAL_INDEX
  2
AcDbSpatialIndex
  3
"Acad"
 90
        0
280
     0
281
     0
  0
CLASS
  1
OBJECT_PTR
  2
CAseDLPNTableRecord
  3
"ASE-LPNTableRecord"
 90
        1
280
     0
281
     0
  0
CLASS
  1
LAYOUT
  2
AcDbLayout
  3
"AutoCAD 2000"
 90
        1
280
     0
281
     0
  0
CLASS
  1
PLOTSETTINGS
  2
AcDbPlotSettings
  3
"AutoCAD 2000"
 90
        1
280
     0
281
     0
  0
CLASS
  1
ACDBDICTIONARYWDFLT
  2
AcDbDictionaryWithDefault
  3
"AutoCAD 2000"
 90
        1
280
     0
281
     0
  0
CLASS
  1
ACDBPLACEHOLDER
  2
AcDbPlaceHolder
  3
"AutoCAD 2000"
 90
        1
280
     0
281
     0
  0
CLASS
  1
VBA_PROJECT
  2
AcDbVbaProject
  3
"acadvba"
 90
        1
280
     0
281
     0
  0
CLASS
  1
WIPEOUT
  2
AcDbWipeout
  3
WipeOut|AutoCAD Express Tool|expresstools@autodesk.com
 90
      127
280
     0
281
     1
  0
CLASS
  1
WIPEOUTVARIABLES
  2
AcDbWipeoutVariables
  3
WipeOut|AutoCAD Express Tool|expresstools@autodesk.com
 90
        0
280
     0
281
     0
  0
CLASS
  1
RTEXT
  2
RText
  3
RText|AutoCAD Express Tool|expresstools@autodesk.com
 90
        0
280
     0
281
     1
  0
CLASS
  1
ARCALIGNEDTEXT
  2
AcDbArcAlignedText
  3
ATEXT|AutoCAD Express Tool|expresstools@autodesk.com
 90
        0
280
     0
281
     1
  0
ENDSEC
  0
SECTION
  2
TABLES
  0
TABLE
  2
VPORT
  5
8
100
AcDbSymbolTable
 70
     1
  0
VPORT
  5
25
100
AcDbSymbolTableRecord
100
AcDbViewportTableRecord
  2
*ACTIVE
 70
    64
 10
0.0
 20
0.0
 11
1.0
 21
1.0
 12
7.585394
 22
4.5
 13
0.0
 23
0.0
 14
0.5
 24
0.5
 15
0.5
 25
0.5
 16
0.0
 26
0.0
 36
1.0
 17
0.0
 27
0.0
 37
0.0
 40
9.18
 41
1.997783
 42
50.0
 43
0.0
 44
0.0
 50
0.0
 51
0.0
 71
     0
 72
   100
 73
     1
 74
     1
 75
     0
 76
     0
 77
     0
 78
     0
  0
ENDTAB
  0
TABLE
  2
LTYPE
  5
5
100
AcDbSymbolTable
 70
     3
  0
LTYPE
  5
12
100
AcDbSymbolTableRecord
100
AcDbLinetypeTableRecord
  2
BYBLOCK
 70
    64
  3

 72
    65
 73
     0
 40
0.0
  0
LTYPE
  5
13
100
AcDbSymbolTableRecord
100
AcDbLinetypeTableRecord
  2
BYLAYER
 70
    64
  3

 72
    65
 73
     0
 40
0.0
  0
LTYPE
  5
14
100
AcDbSymbolTableRecord
100
AcDbLinetypeTableRecord
  2
CONTINUOUS
 70
    64
  3
Solid line
 72
    65
 73
     0
 40
0.0
  0
ENDTAB
  0
TABLE
  2
LAYER
  5
2
100
AcDbSymbolTable
 70
     3
  0
LAYER
  5
E
100
AcDbSymbolTableRecord
100
AcDbLayerTableRecord
  2
0
 70
    64
 62
     7
  6
CONTINUOUS
  0
LAYER
  5
2D
100
AcDbSymbolTableRecord
100
AcDbLayerTableRecord
  2
VESSEL
 70
     0
 62
     7
  6
CONTINUOUS
  0
LAYER
  5
150
100
AcDbSymbolTableRecord
100
AcDbLayerTableRecord
  2
WATER
 70
     0
 62
     7
  6
CONTINUOUS
  0
ENDTAB
  0
TABLE
  2
STYLE
  5
3
100
AcDbSymbolTable
 70
     1
  0
STYLE
  5
F
100
AcDbSymbolTableRecord
100
AcDbTextStyleTableRecord
  2
STANDARD
 70
    64
 40
0.0
 41
1.0
 50
0.0
 71
     0
 42
0.2
  3
txt.shx
  4

  0
ENDTAB
  0
TABLE
  2
VIEW
  5
6
100
AcDbSymbolTable
 70
     0
  0
ENDTAB
  0
TABLE
  2
UCS
  5
7
100
AcDbSymbolTable
 70
     0
  0
ENDTAB
  0
TABLE
  2
APPID
  5
9
100
AcDbSymbolTable
 70
     1
  0
APPID
  5
10
100
AcDbSymbolTableRecord
100
AcDbRegAppTableRecord
  2
ACAD
 70
    64
  0
ENDTAB
  0
TABLE
  2
DIMSTYLE
  5
A
100
AcDbSymbolTable
 70
     1
  0
DIMSTYLE
105
1D
100
AcDbSymbolTableRecord
100
AcDbDimStyleTableRecord
  2
STANDARD
 70
    64
  3

  4

  5

  6

  7

 40
1.0
 41
0.18
 42
0.0625
 43
0.38
 44
0.18
 45
0.0
 46
0.0
 47
0.0
 48
0.0
 71
     0
 72
     0
 73
     1
 74
     1
 75
     0
 76
     0
 77
     0
 78
     0
140
0.18
141
0.09
142
0.0
143
25.4
144
1.0
145
0.0
146
1.0
147
0.09
170
     0
171
     2
172
     0
173
     0
174
     0
175
     0
176
     0
177
     0
178
     0
270
     2
271
     4
272
     4
273
     2
274
     2
275
     0
280
     0
281
     0
282
     0
283
     1
284
     0
285
     0
286
     0
287
     3
288
     0
340
F
  0
ENDTAB
  0
TABLE
  2
BLOCK_RECORD
  5
1
100
AcDbSymbolTable
 70
     2
  0
BLOCK_RECORD
  5
18
100
AcDbSymbolTableRecord
100
AcDbBlockTableRecord
  2
*MODEL_SPACE
  0
BLOCK_RECORD
  5
15
100
AcDbSymbolTableRecord
100
AcDbBlockTableRecord
  2
*PAPER_SPACE
  0
BLOCK_RECORD
  5
199
100
AcDbSymbolTableRecord
100
AcDbBlockTableRecord
  2
SHEET_58
  0
BLOCK_RECORD
  5
1E5
100
AcDbSymbolTableRecord
100
AcDbBlockTableRecord
  2
SHEET_59
  0
ENDTAB
  0
ENDSEC
  0
SECTION
  2
BLOCKS
  0
BLOCK
  5
19
100
AcDbEntity
  8
0
100
AcDbBlockBegin
  2
*MODEL_SPACE
 70
     0
 10
0.0
 20
0.0
 30
0.0
  3
*MODEL_SPACE
  1

  0
ENDBLK
  5
1A
100
AcDbEntity
  8
0
100
AcDbBlockEnd
  0
BLOCK
  5
16
100
AcDbEntity
 67
     1
  8
0
100
AcDbBlockBegin
  2
*PAPER_SPACE
 70
     0
 10
0.0
 20
0.0
 30
0.0
  3
*PAPER_SPACE
  1

  0
ENDBLK
  5
17
100
AcDbEntity
 67
     1
  8
0
100
AcDbBlockEnd
  0
BLOCK
  5
14F
100
AcDbEntity
  8
0
100
AcDbBlockBegin
  2
SHEET_58
 70
    66
 10
1.261579
 20
1.930176
 30
0.0
  3
SHEET_58
  1

  0
POLYLINE
  5
151
100
AcDbEntity
  8
WATER
  6
CONTINUOUS
 62
     5
100
AcDb2dPolyline
 66
     1
 10
0.0
 20
0.0
 30
0.0
 40
0.016667
 41
0.016667
  0
VERTEX
  5
152
100
AcDbEntity
  8
WATER
  6
CONTINUOUS
 62
     5
100
AcDbVertex
100
AcDb2dVertex
 10
0.9375
 20
1.908203
 30
0.0
  0
VERTEX
  5
153
100
AcDbEntity
  8
WATER
  6
CONTINUOUS
 62
     5
100
AcDbVertex
100
AcDb2dVertex
 10
0.957031
 20
1.916016
 30
0.0
  0
VERTEX
  5
154
100
AcDbEntity
  8
WATER
  6
CONTINUOUS
 62
     5
100
AcDbVertex
100
AcDb2dVertex
 10
0.972656
 20
1.933594
 30
0.0
  0
VERTEX
  5
155
100
AcDbEntity
  8
WATER
  6
CONTINUOUS
 62
     5
100
AcDbVertex
100
AcDb2dVertex
 10
0.979492
 20
1.954102
 30
0.0
  0
VERTEX
  5
156
100
AcDbEntity
  8
WATER
  6
CONTINUOUS
 62
     5
100
AcDbVertex
100
AcDb2dVertex
 10
0.984375
 20
1.930664
 30
0.0
  0
VERTEX
  5
157
100
AcDbEntity
  8
WATER
  6
CONTINUOUS
 62
     5
100
AcDbVertex
100
AcDb2dVertex
 10
0.99707
 20
1.914063
 30
0.0
  0
VERTEX
  5
158
100
AcDbEntity
  8
WATER
  6
CONTINUOUS
 62
     5
100
AcDbVertex
100
AcDb2dVertex
 10
1.011719
 20
1.90625
 30
0.0
  0
SEQEND
  5
159
100
AcDbEntity
  8
WATER
  6
CONTINUOUS
 62
     5
  0
POLYLINE
  5
15A
100
AcDbEntity
  8
WATER
  6
CONTINUOUS
 62
     5
100
AcDb2dPolyline
 66
     1
 10
0.0
 20
0.0
 30
0.0
 40
0.016667
 41
0.016667
  0
VERTEX
  5
15B
100
AcDbEntity
  8
WATER
  6
CONTINUOUS
 62
     5
100
AcDbVertex
100
AcDb2dVertex
 10
1.019491
 20
1.908203
 30
0.0
  0
VERTEX
  5
15C
100
AcDbEntity
  8
WATER
  6
CONTINUOUS
 62
     5
100
AcDbVertex
100
AcDb2dVertex
 10
1.039023
 20
1.916016
 30
0.0
  0
VERTEX
  5
15D
100
AcDbEntity
  8
WATER
  6
CONTINUOUS
 62
     5
100
AcDbVertex
100
AcDb2dVertex
 10
1.054648
 20
1.933594
 30
0.0
  0
VERTEX
  5
15E
100
AcDbEntity
  8
WATER
  6
CONTINUOUS
 62
     5
100
AcDbVertex
100
AcDb2dVertex
 10
1.061484
 20
1.954102
 30
0.0
  0
VERTEX
  5
15F
100
AcDbEntity
  8
WATER
  6
CONTINUOUS
 62
     5
100
AcDbVertex
100
AcDb2dVertex
 10
1.066366
 20
1.930664
 30
0.0
  0
VERTEX
  5
160
100
AcDbEntity
  8
WATER
  6
CONTINUOUS
 62
     5
100
AcDbVertex
100
AcDb2dVertex
 10
1.079062
 20
1.914063
 30
0.0
  0
VERTEX
  5
161
100
AcDbEntity
  8
WATER
  6
CONTINUOUS
 62
     5
100
AcDbVertex
100
AcDb2dVertex
 10
1.09371
 20
1.90625
 30
0.0
  0
SEQEND
  5
162
100
AcDbEntity
  8
WATER
  6
CONTINUOUS
 62
     5
  0
POLYLINE
  5
163
100
AcDbEntity
  8
WATER
  6
CONTINUOUS
 62
     5
100
AcDb2dPolyline
 66
     1
 10
0.0
 20
0.0
 30
0.0
 40
0.016667
 41
0.016667
  0
VERTEX
  5
164
100
AcDbEntity
  8
WATER
  6
CONTINUOUS
 62
     5
100
AcDbVertex
100
AcDb2dVertex
 10
1.101483
 20
1.908203
 30
0.0
  0
VERTEX
  5
165
100
AcDbEntity
  8
WATER
  6
CONTINUOUS
 62
     5
100
AcDbVertex
100
AcDb2dVertex
 10
1.121014
 20
1.916016
 30
0.0
  0
VERTEX
  5
166
100
AcDbEntity
  8
WATER
  6
CONTINUOUS
 62
     5
100
AcDbVertex
100
AcDb2dVertex
 10
1.136639
 20
1.933594
 30
0.0
  0
VERTEX
  5
167
100
AcDbEntity
  8
WATER
  6
CONTINUOUS
 62
     5
100
AcDbVertex
100
AcDb2dVertex
 10
1.143475
 20
1.954102
 30
0.0
  0
VERTEX
  5
168
100
AcDbEntity
  8
WATER
  6
CONTINUOUS
 62
     5
100
AcDbVertex
100
AcDb2dVertex
 10
1.148358
 20
1.930664
 30
0.0
  0
VERTEX
  5
169
100
AcDbEntity
  8
WATER
  6
CONTINUOUS
 62
     5
100
AcDbVertex
100
AcDb2dVertex
 10
1.161053
 20
1.914063
 30
0.0
  0
VERTEX
  5
16A
100
AcDbEntity
  8
WATER
  6
CONTINUOUS
 62
     5
100
AcDbVertex
100
AcDb2dVertex
 10
1.175702
 20
1.90625
 30
0.0
  0
SEQEND
  5
16B
100
AcDbEntity
  8
WATER
  6
CONTINUOUS
 62
     5
  0
POLYLINE
  5
16C
100
AcDbEntity
  8
WATER
  6
CONTINUOUS
 62
     5
100
AcDb2dPolyline
 66
     1
 10
0.0
 20
0.0
 30
0.0
 40
0.016667
 41
0.016667
  0
VERTEX
  5
16D
100
AcDbEntity
  8
WATER
  6
CONTINUOUS
 62
     5
100
AcDbVertex
100
AcDb2dVertex
 10
1.183474
 20
1.908203
 30
0.0
  0
VERTEX
  5
16E
100
AcDbEntity
  8
WATER
  6
CONTINUOUS
 62
     5
100
AcDbVertex
100
AcDb2dVertex
 10
1.203005
 20
1.916016
 30
0.0
  0
VERTEX
  5
16F
100
AcDbEntity
  8
WATER
  6
CONTINUOUS
 62
     5
100
AcDbVertex
100
AcDb2dVertex
 10
1.21863
 20
1.933594
 30
0.0
  0
VERTEX
  5
170
100
AcDbEntity
  8
WATER
  6
CONTINUOUS
 62
     5
100
AcDbVertex
100
AcDb2dVertex
 10
1.225466
 20
1.954102
 30
0.0
  0
VERTEX
  5
171
100
AcDbEntity
  8
WATER
  6
CONTINUOUS
 62
     5
100
AcDbVertex
100
AcDb2dVertex
 10
1.230349
 20
1.930664
 30
0.0
  0
VERTEX
  5
172
100
AcDbEntity
  8
WATER
  6
CONTINUOUS
 62
     5
100
AcDbVertex
100
AcDb2dVertex
 10
1.243044
 20
1.914063
 30
0.0
  0
VERTEX
  5
173
100
AcDbEntity
  8
WATER
  6
CONTINUOUS
 62
     5
100
AcDbVertex
100
AcDb2dVertex
 10
1.257693
 20
1.90625
 30
0.0
  0
SEQEND
  5
174
100
AcDbEntity
  8
WATER
  6
CONTINUOUS
 62
     5
  0
POLYLINE
  5
175
100
AcDbEntity
  8
WATER
  6
CONTINUOUS
 62
     5
100
AcDb2dPolyline
 66
     1
 10
0.0
 20
0.0
 30
0.0
 40
0.016667
 41
0.016667
  0
VERTEX
  5
176
100
AcDbEntity
  8
WATER
  6
CONTINUOUS
 62
     5
100
AcDbVertex
100
AcDb2dVertex
 10
1.265466
 20
1.908203
 30
0.0
  0
VERTEX
  5
177
100
AcDbEntity
  8
WATER
  6
CONTINUOUS
 62
     5
100
AcDbVertex
100
AcDb2dVertex
 10
1.284997
 20
1.916016
 30
0.0
  0
VERTEX
  5
178
100
AcDbEntity
  8
WATER
  6
CONTINUOUS
 62
     5
100
AcDbVertex
100
AcDb2dVertex
 10
1.300622
 20
1.933594
 30
0.0
  0
VERTEX
  5
179
100
AcDbEntity
  8
WATER
  6
CONTINUOUS
 62
     5
100
AcDbVertex
100
AcDb2dVertex
 10
1.307458
 20
1.954102
 30
0.0
  0
VERTEX
  5
17A
100
AcDbEntity
  8
WATER
  6
CONTINUOUS
 62
     5
100
AcDbVertex
100
AcDb2dVertex
 10
1.312341
 20
1.930664
 30
0.0
  0
VERTEX
  5
17B
100
AcDbEntity
  8
WATER
  6
CONTINUOUS
 62
     5
100
AcDbVertex
100
AcDb2dVertex
 10
1.325036
 20
1.914063
 30
0.0
  0
VERTEX
  5
17C
100
AcDbEntity
  8
WATER
  6
CONTINUOUS
 62
     5
100
AcDbVertex
100
AcDb2dVertex
 10
1.339684
 20
1.90625
 30
0.0
  0
SEQEND
  5
17D
100
AcDbEntity
  8
WATER
  6
CONTINUOUS
 62
     5
  0
POLYLINE
  5
17E
100
AcDbEntity
  8
WATER
  6
CONTINUOUS
 62
     5
100
AcDb2dPolyline
 66
     1
 10
0.0
 20
0.0
 30
0.0
 40
0.016667
 41
0.016667
  0
VERTEX
  5
17F
100
AcDbEntity
  8
WATER
  6
CONTINUOUS
 62
     5
100
AcDbVertex
100
AcDb2dVertex
 10
1.347457
 20
1.908203
 30
0.0
  0
VERTEX
  5
180
100
AcDbEntity
  8
WATER
  6
CONTINUOUS
 62
     5
100
AcDbVertex
100
AcDb2dVertex
 10
1.366988
 20
1.916016
 30
0.0
  0
VERTEX
  5
181
100
AcDbEntity
  8
WATER
  6
CONTINUOUS
 62
     5
100
AcDbVertex
100
AcDb2dVertex
 10
1.382613
 20
1.933594
 30
0.0
  0
VERTEX
  5
182
100
AcDbEntity
  8
WATER
  6
CONTINUOUS
 62
     5
100
AcDbVertex
100
AcDb2dVertex
 10
1.389449
 20
1.954102
 30
0.0
  0
VERTEX
  5
183
100
AcDbEntity
  8
WATER
  6
CONTINUOUS
 62
     5
100
AcDbVertex
100
AcDb2dVertex
 10
1.394332
 20
1.930664
 30
0.0
  0
VERTEX
  5
184
100
AcDbEntity
  8
WATER
  6
CONTINUOUS
 62
     5
100
AcDbVertex
100
AcDb2dVertex
 10
1.407027
 20
1.914063
 30
0.0
  0
VERTEX
  5
185
100
AcDbEntity
  8
WATER
  6
CONTINUOUS
 62
     5
100
AcDbVertex
100
AcDb2dVertex
 10
1.421676
 20
1.90625
 30
0.0
  0
SEQEND
  5
186
100
AcDbEntity
  8
WATER
  6
CONTINUOUS
 62
     5
  0
POLYLINE
  5
187
100
AcDbEntity
  8
WATER
  6
CONTINUOUS
 62
     5
100
AcDb2dPolyline
 66
     1
 10
0.0
 20
0.0
 30
0.0
 40
0.016667
 41
0.016667
  0
VERTEX
  5
188
100
AcDbEntity
  8
WATER
  6
CONTINUOUS
 62
     5
100
AcDbVertex
100
AcDb2dVertex
 10
1.429448
 20
1.908203
 30
0.0
  0
VERTEX
  5
189
100
AcDbEntity
  8
WATER
  6
CONTINUOUS
 62
     5
100
AcDbVertex
100
AcDb2dVertex
 10
1.44898
 20
1.916016
 30
0.0
  0
VERTEX
  5
18A
100
AcDbEntity
  8
WATER
  6
CONTINUOUS
 62
     5
100
AcDbVertex
100
AcDb2dVertex
 10
1.464605
 20
1.933594
 30
0.0
  0
VERTEX
  5
18B
100
AcDbEntity
  8
WATER
  6
CONTINUOUS
 62
     5
100
AcDbVertex
100
AcDb2dVertex
 10
1.471441
 20
1.954102
 30
0.0
  0
VERTEX
  5
18C
100
AcDbEntity
  8
WATER
  6
CONTINUOUS
 62
     5
100
AcDbVertex
100
AcDb2dVertex
 10
1.476323
 20
1.930664
 30
0.0
  0
VERTEX
  5
18D
100
AcDbEntity
  8
WATER
  6
CONTINUOUS
 62
     5
100
AcDbVertex
100
AcDb2dVertex
 10
1.489019
 20
1.914063
 30
0.0
  0
VERTEX
  5
18E
100
AcDbEntity
  8
WATER
  6
CONTINUOUS
 62
     5
100
AcDbVertex
100
AcDb2dVertex
 10
1.503667
 20
1.90625
 30
0.0
  0
SEQEND
  5
18F
100
AcDbEntity
  8
WATER
  6
CONTINUOUS
 62
     5
  0
POLYLINE
  5
190
100
AcDbEntity
  8
WATER
  6
CONTINUOUS
 62
     5
100
AcDb2dPolyline
 66
     1
 10
0.0
 20
0.0
 30
0.0
 40
0.016667
 41
0.016667
  0
VERTEX
  5
191
100
AcDbEntity
  8
WATER
  6
CONTINUOUS
 62
     5
100
AcDbVertex
100
AcDb2dVertex
 10
1.51144
 20
1.908203
 30
0.0
  0
VERTEX
  5
192
100
AcDbEntity
  8
WATER
  6
CONTINUOUS
 62
     5
100
AcDbVertex
100
AcDb2dVertex
 10
1.530971
 20
1.916016
 30
0.0
  0
VERTEX
  5
193
100
AcDbEntity
  8
WATER
  6
CONTINUOUS
 62
     5
100
AcDbVertex
100
AcDb2dVertex
 10
1.546596
 20
1.933594
 30
0.0
  0
VERTEX
  5
194
100
AcDbEntity
  8
WATER
  6
CONTINUOUS
 62
     5
100
AcDbVertex
100
AcDb2dVertex
 10
1.553432
 20
1.954102
 30
0.0
  0
VERTEX
  5
195
100
AcDbEntity
  8
WATER
  6
CONTINUOUS
 62
     5
100
AcDbVertex
100
AcDb2dVertex
 10
1.558315
 20
1.930664
 30
0.0
  0
VERTEX
  5
196
100
AcDbEntity
  8
WATER
  6
CONTINUOUS
 62
     5
100
AcDbVertex
100
AcDb2dVertex
 10
1.57101
 20
1.914063
 30
0.0
  0
VERTEX
  5
197
100
AcDbEntity
  8
WATER
  6
CONTINUOUS
 62
     5
100
AcDbVertex
100
AcDb2dVertex
 10
1.585658
 20
1.90625
 30
0.0
  0
SEQEND
  5
198
100
AcDbEntity
  8
WATER
  6
CONTINUOUS
 62
     5
  0
ENDBLK
  5
19A
100
AcDbEntity
  8
0
100
AcDbBlockEnd
  0
BLOCK
  5
19C
100
AcDbEntity
  8
0
100
AcDbBlockBegin
  2
SHEET_59
 70
    66
 10
7.93736
 20
1.930176
 30
0.0
  3
SHEET_59
  1

  0
POLYLINE
  5
19D
100
AcDbEntity
  8
WATER
  6
CONTINUOUS
 62
     5
100
AcDb2dPolyline
 66
     1
 10
0.0
 20
0.0
 30
0.0
 40
0.016667
 41
0.016667
  0
VERTEX
  5
19E
100
AcDbEntity
  8
WATER
  6
CONTINUOUS
 62
     5
100
AcDbVertex
100
AcDb2dVertex
 10
7.613281
 20
1.908203
 30
0.0
  0
VERTEX
  5
19F
100
AcDbEntity
  8
WATER
  6
CONTINUOUS
 62
     5
100
AcDbVertex
100
AcDb2dVertex
 10
7.632813
 20
1.916016
 30
0.0
  0
VERTEX
  5
1A0
100
AcDbEntity
  8
WATER
  6
CONTINUOUS
 62
     5
100
AcDbVertex
100
AcDb2dVertex
 10
7.648438
 20
1.933594
 30
0.0
  0
VERTEX
  5
1A1
100
AcDbEntity
  8
WATER
  6
CONTINUOUS
 62
     5
100
AcDbVertex
100
AcDb2dVertex
 10
7.655273
 20
1.954102
 30
0.0
  0
VERTEX
  5
1A2
100
AcDbEntity
  8
WATER
  6
CONTINUOUS
 62
     5
100
AcDbVertex
100
AcDb2dVertex
 10
7.660156
 20
1.930664
 30
0.0
  0
VERTEX
  5
1A3
100
AcDbEntity
  8
WATER
  6
CONTINUOUS
 62
     5
100
AcDbVertex
100
AcDb2dVertex
 10
7.672852
 20
1.914063
 30
0.0
  0
VERTEX
  5
1A4
100
AcDbEntity
  8
WATER
  6
CONTINUOUS
 62
     5
100
AcDbVertex
100
AcDb2dVertex
 10
7.6875
 20
1.90625
 30
0.0
  0
SEQEND
  5
1A5
100
AcDbEntity
  8
WATER
  6
CONTINUOUS
 62
     5
  0
POLYLINE
  5
1A6
100
AcDbEntity
  8
WATER
  6
CONTINUOUS
 62
     5
100
AcDb2dPolyline
 66
     1
 10
0.0
 20
0.0
 30
0.0
 40
0.016667
 41
0.016667
  0
VERTEX
  5
1A7
100
AcDbEntity
  8
WATER
  6
CONTINUOUS
 62
     5
100
AcDbVertex
100
AcDb2dVertex
 10
7.695273
 20
1.908203
 30
0.0
  0
VERTEX
  5
1A8
100
AcDbEntity
  8
WATER
  6
CONTINUOUS
 62
     5
100
AcDbVertex
100
AcDb2dVertex
 10
7.714804
 20
1.916016
 30
0.0
  0
VERTEX
  5
1A9
100
AcDbEntity
  8
WATER
  6
CONTINUOUS
 62
     5
100
AcDbVertex
100
AcDb2dVertex
 10
7.730429
 20
1.933594
 30
0.0
  0
VERTEX
  5
1AA
100
AcDbEntity
  8
WATER
  6
CONTINUOUS
 62
     5
100
AcDbVertex
100
AcDb2dVertex
 10
7.737265
 20
1.954102
 30
0.0
  0
VERTEX
  5
1AB
100
AcDbEntity
  8
WATER
  6
CONTINUOUS
 62
     5
100
AcDbVertex
100
AcDb2dVertex
 10
7.742148
 20
1.930664
 30
0.0
  0
VERTEX
  5
1AC
100
AcDbEntity
  8
WATER
  6
CONTINUOUS
 62
     5
100
AcDbVertex
100
AcDb2dVertex
 10
7.754843
 20
1.914063
 30
0.0
  0
VERTEX
  5
1AD
100
AcDbEntity
  8
WATER
  6
CONTINUOUS
 62
     5
100
AcDbVertex
100
AcDb2dVertex
 10
7.769491
 20
1.90625
 30
0.0
  0
SEQEND
  5
1AE
100
AcDbEntity
  8
WATER
  6
CONTINUOUS
 62
     5
  0
POLYLINE
  5
1AF
100
AcDbEntity
  8
WATER
  6
CONTINUOUS
 62
     5
100
AcDb2dPolyline
 66
     1
 10
0.0
 20
0.0
 30
0.0
 40
0.016667
 41
0.016667
  0
VERTEX
  5
1B0
100
AcDbEntity
  8
WATER
  6
CONTINUOUS
 62
     5
100
AcDbVertex
100
AcDb2dVertex
 10
7.777264
 20
1.908203
 30
0.0
  0
VERTEX
  5
1B1
100
AcDbEntity
  8
WATER
  6
CONTINUOUS
 62
     5
100
AcDbVertex
100
AcDb2dVertex
 10
7.796795
 20
1.916016
 30
0.0
  0
VERTEX
  5
1B2
100
AcDbEntity
  8
WATER
  6
CONTINUOUS
 62
     5
100
AcDbVertex
100
AcDb2dVertex
 10
7.81242
 20
1.933594
 30
0.0
  0
VERTEX
  5
1B3
100
AcDbEntity
  8
WATER
  6
CONTINUOUS
 62
     5
100
AcDbVertex
100
AcDb2dVertex
 10
7.819256
 20
1.954102
 30
0.0
  0
VERTEX
  5
1B4
100
AcDbEntity
  8
WATER
  6
CONTINUOUS
 62
     5
100
AcDbVertex
100
AcDb2dVertex
 10
7.824139
 20
1.930664
 30
0.0
  0
VERTEX
  5
1B5
100
AcDbEntity
  8
WATER
  6
CONTINUOUS
 62
     5
100
AcDbVertex
100
AcDb2dVertex
 10
7.836834
 20
1.914063
 30
0.0
  0
VERTEX
  5
1B6
100
AcDbEntity
  8
WATER
  6
CONTINUOUS
 62
     5
100
AcDbVertex
100
AcDb2dVertex
 10
7.851483
 20
1.90625
 30
0.0
  0
SEQEND
  5
1B7
100
AcDbEntity
  8
WATER
  6
CONTINUOUS
 62
     5
  0
POLYLINE
  5
1B8
100
AcDbEntity
  8
WATER
  6
CONTINUOUS
 62
     5
100
AcDb2dPolyline
 66
     1
 10
0.0
 20
0.0
 30
0.0
 40
0.016667
 41
0.016667
  0
VERTEX
  5
1B9
100
AcDbEntity
  8
WATER
  6
CONTINUOUS
 62
     5
100
AcDbVertex
100
AcDb2dVertex
 10
7.859255
 20
1.908203
 30
0.0
  0
VERTEX
  5
1BA
100
AcDbEntity
  8
WATER
  6
CONTINUOUS
 62
     5
100
AcDbVertex
100
AcDb2dVertex
 10
7.878787
 20
1.916016
 30
0.0
  0
VERTEX
  5
1BB
100
AcDbEntity
  8
WATER
  6
CONTINUOUS
 62
     5
100
AcDbVertex
100
AcDb2dVertex
 10
7.894412
 20
1.933594
 30
0.0
  0
VERTEX
  5
1BC
100
AcDbEntity
  8
WATER
  6
CONTINUOUS
 62
     5
100
AcDbVertex
100
AcDb2dVertex
 10
7.901248
 20
1.954102
 30
0.0
  0
VERTEX
  5
1BD
100
AcDbEntity
  8
WATER
  6
CONTINUOUS
 62
     5
100
AcDbVertex
100
AcDb2dVertex
 10
7.90613
 20
1.930664
 30
0.0
  0
VERTEX
  5
1BE
100
AcDbEntity
  8
WATER
  6
CONTINUOUS
 62
     5
100
AcDbVertex
100
AcDb2dVertex
 10
7.918826
 20
1.914063
 30
0.0
  0
VERTEX
  5
1BF
100
AcDbEntity
  8
WATER
  6
CONTINUOUS
 62
     5
100
AcDbVertex
100
AcDb2dVertex
 10
7.933474
 20
1.90625
 30
0.0
  0
SEQEND
  5
1C0
100
AcDbEntity
  8
WATER
  6
CONTINUOUS
 62
     5
  0
POLYLINE
  5
1C1
100
AcDbEntity
  8
WATER
  6
CONTINUOUS
 62
     5
100
AcDb2dPolyline
 66
     1
 10
0.0
 20
0.0
 30
0.0
 40
0.016667
 41
0.016667
  0
VERTEX
  5
1C2
100
AcDbEntity
  8
WATER
  6
CONTINUOUS
 62
     5
100
AcDbVertex
100
AcDb2dVertex
 10
7.941247
 20
1.908203
 30
0.0
  0
VERTEX
  5
1C3
100
AcDbEntity
  8
WATER
  6
CONTINUOUS
 62
     5
100
AcDbVertex
100
AcDb2dVertex
 10
7.960778
 20
1.916016
 30
0.0
  0
VERTEX
  5
1C4
100
AcDbEntity
  8
WATER
  6
CONTINUOUS
 62
     5
100
AcDbVertex
100
AcDb2dVertex
 10
7.976403
 20
1.933594
 30
0.0
  0
VERTEX
  5
1C5
100
AcDbEntity
  8
WATER
  6
CONTINUOUS
 62
     5
100
AcDbVertex
100
AcDb2dVertex
 10
7.983239
 20
1.954102
 30
0.0
  0
VERTEX
  5
1C6
100
AcDbEntity
  8
WATER
  6
CONTINUOUS
 62
     5
100
AcDbVertex
100
AcDb2dVertex
 10
7.988122
 20
1.930664
 30
0.0
  0
VERTEX
  5
1C7
100
AcDbEntity
  8
WATER
  6
CONTINUOUS
 62
     5
100
AcDbVertex
100
AcDb2dVertex
 10
8.000817
 20
1.914063
 30
0.0
  0
VERTEX
  5
1C8
100
AcDbEntity
  8
WATER
  6
CONTINUOUS
 62
     5
100
AcDbVertex
100
AcDb2dVertex
 10
8.015466
 20
1.90625
 30
0.0
  0
SEQEND
  5
1C9
100
AcDbEntity
  8
WATER
  6
CONTINUOUS
 62
     5
  0
POLYLINE
  5
1CA
100
AcDbEntity
  8
WATER
  6
CONTINUOUS
 62
     5
100
AcDb2dPolyline
 66
     1
 10
0.0
 20
0.0
 30
0.0
 40
0.016667
 41
0.016667
  0
VERTEX
  5
1CB
100
AcDbEntity
  8
WATER
  6
CONTINUOUS
 62
     5
100
AcDbVertex
100
AcDb2dVertex
 10
8.023238
 20
1.908203
 30
0.0
  0
VERTEX
  5
1CC
100
AcDbEntity
  8
WATER
  6
CONTINUOUS
 62
     5
100
AcDbVertex
100
AcDb2dVertex
 10
8.042769
 20
1.916016
 30
0.0
  0
VERTEX
  5
1CD
100
AcDbEntity
  8
WATER
  6
CONTINUOUS
 62
     5
100
AcDbVertex
100
AcDb2dVertex
 10
8.058394
 20
1.933594
 30
0.0
  0
VERTEX
  5
1CE
100
AcDbEntity
  8
WATER
  6
CONTINUOUS
 62
     5
100
AcDbVertex
100
AcDb2dVertex
 10
8.06523
 20
1.954102
 30
0.0
  0
VERTEX
  5
1CF
100
AcDbEntity
  8
WATER
  6
CONTINUOUS
 62
     5
100
AcDbVertex
100
AcDb2dVertex
 10
8.070113
 20
1.930664
 30
0.0
  0
VERTEX
  5
1D0
100
AcDbEntity
  8
WATER
  6
CONTINUOUS
 62
     5
100
AcDbVertex
100
AcDb2dVertex
 10
8.082809
 20
1.914063
 30
0.0
  0
VERTEX
  5
1D1
100
AcDbEntity
  8
WATER
  6
CONTINUOUS
 62
     5
100
AcDbVertex
100
AcDb2dVertex
 10
8.097457
 20
1.90625
 30
0.0
  0
SEQEND
  5
1D2
100
AcDbEntity
  8
WATER
  6
CONTINUOUS
 62
     5
  0
POLYLINE
  5
1D3
100
AcDbEntity
  8
WATER
  6
CONTINUOUS
 62
     5
100
AcDb2dPolyline
 66
     1
 10
0.0
 20
0.0
 30
0.0
 40
0.016667
 41
0.016667
  0
VERTEX
  5
1D4
100
AcDbEntity
  8
WATER
  6
CONTINUOUS
 62
     5
100
AcDbVertex
100
AcDb2dVertex
 10
8.10523
 20
1.908203
 30
0.0
  0
VERTEX
  5
1D5
100
AcDbEntity
  8
WATER
  6
CONTINUOUS
 62
     5
100
AcDbVertex
100
AcDb2dVertex
 10
8.124761
 20
1.916016
 30
0.0
  0
VERTEX
  5
1D6
100
AcDbEntity
  8
WATER
  6
CONTINUOUS
 62
     5
100
AcDbVertex
100
AcDb2dVertex
 10
8.140386
 20
1.933594
 30
0.0
  0
VERTEX
  5
1D7
100
AcDbEntity
  8
WATER
  6
CONTINUOUS
 62
     5
100
AcDbVertex
100
AcDb2dVertex
 10
8.147222
 20
1.954102
 30
0.0
  0
VERTEX
  5
1D8
100
AcDbEntity
  8
WATER
  6
CONTINUOUS
 62
     5
100
AcDbVertex
100
AcDb2dVertex
 10
8.152105
 20
1.930664
 30
0.0
  0
VERTEX
  5
1D9
100
AcDbEntity
  8
WATER
  6
CONTINUOUS
 62
     5
100
AcDbVertex
100
AcDb2dVertex
 10
8.1648
 20
1.914063
 30
0.0
  0
VERTEX
  5
1DA
100
AcDbEntity
  8
WATER
  6
CONTINUOUS
 62
     5
100
AcDbVertex
100
AcDb2dVertex
 10
8.179448
 20
1.90625
 30
0.0
  0
SEQEND
  5
1DB
100
AcDbEntity
  8
WATER
  6
CONTINUOUS
 62
     5
  0
POLYLINE
  5
1DC
100
AcDbEntity
  8
WATER
  6
CONTINUOUS
 62
     5
100
AcDb2dPolyline
 66
     1
 10
0.0
 20
0.0
 30
0.0
 40
0.016667
 41
0.016667
  0
VERTEX
  5
1DD
100
AcDbEntity
  8
WATER
  6
CONTINUOUS
 62
     5
100
AcDbVertex
100
AcDb2dVertex
 10
8.187221
 20
1.908203
 30
0.0
  0
VERTEX
  5
1DE
100
AcDbEntity
  8
WATER
  6
CONTINUOUS
 62
     5
100
AcDbVertex
100
AcDb2dVertex
 10
8.206752
 20
1.916016
 30
0.0
  0
VERTEX
  5
1DF
100
AcDbEntity
  8
WATER
  6
CONTINUOUS
 62
     5
100
AcDbVertex
100
AcDb2dVertex
 10
8.222377
 20
1.933594
 30
0.0
  0
VERTEX
  5
1E0
100
AcDbEntity
  8
WATER
  6
CONTINUOUS
 62
     5
100
AcDbVertex
100
AcDb2dVertex
 10
8.229213
 20
1.954102
 30
0.0
  0
VERTEX
  5
1E1
100
AcDbEntity
  8
WATER
  6
CONTINUOUS
 62
     5
100
AcDbVertex
100
AcDb2dVertex
 10
8.234096
 20
1.930664
 30
0.0
  0
VERTEX
  5
1E2
100
AcDbEntity
  8
WATER
  6
CONTINUOUS
 62
     5
100
AcDbVertex
100
AcDb2dVertex
 10
8.246791
 20
1.914063
 30
0.0
  0
VERTEX
  5
1E3
100
AcDbEntity
  8
WATER
  6
CONTINUOUS
 62
     5
100
AcDbVertex
100
AcDb2dVertex
 10
8.26144
 20
1.90625
 30
0.0
  0
SEQEND
  5
1E4
100
AcDbEntity
  8
WATER
  6
CONTINUOUS
 62
     5
  0
ENDBLK
  5
1E6
100
AcDbEntity
  8
0
100
AcDbBlockEnd
  0
ENDSEC
  0
SECTION
  2
ENTITIES
  0
POLYLINE
  5
2E
100
AcDbEntity
  8
VESSEL
  6
CONTINUOUS
 62
     7
100
AcDb2dPolyline
 66
     1
 10
0.0
 20
0.0
 30
0.0
  0
VERTEX
  5
2F
100
AcDbEntity
  8
VESSEL
  6
CONTINUOUS
 62
     7
100
AcDbVertex
100
AcDb2dVertex
 10
3.90625
 20
10.679688
 30
0.0
  0
VERTEX
  5
30
100
AcDbEntity
  8
VESSEL
  6
CONTINUOUS
 62
     7
100
AcDbVertex
100
AcDb2dVertex
 10
1.166016
 20
2.771484
 30
0.0
  0
SEQEND
  5
31
100
AcDbEntity
  8
VESSEL
  6
CONTINUOUS
 62
     7
  0
POLYLINE
  5
32
100
AcDbEntity
  8
VESSEL
  6
CONTINUOUS
 62
     7
100
AcDb2dPolyline
 66
     1
 10
0.0
 20
0.0
 30
0.0
  0
VERTEX
  5
33
100
AcDbEntity
  8
VESSEL
  6
CONTINUOUS
 62
     7
100
AcDbVertex
100
AcDb2dVertex
 10
4.001953
 20
10.648438
 30
0.0
  0
VERTEX
  5
34
100
AcDbEntity
  8
VESSEL
  6
CONTINUOUS
 62
     7
100
AcDbVertex
100
AcDb2dVertex
 10
6.609375
 20
3.3125
 30
0.0
  0
SEQEND
  5
35
100
AcDbEntity
  8
VESSEL
  6
CONTINUOUS
 62
     7
  0
POLYLINE
  5
36
100
AcDbEntity
  8
VESSEL
  6
CONTINUOUS
 62
     7
100
AcDb2dPolyline
 66
     1
 10
0.0
 20
0.0
 30
0.0
  0
VERTEX
  5
37
100
AcDbEntity
  8
VESSEL
  6
CONTINUOUS
 62
     7
100
AcDbVertex
100
AcDb2dVertex
 10
7.601563
 20
2.546875
 30
0.0
  0
VERTEX
  5
38
100
AcDbEntity
  8
VESSEL
  6
CONTINUOUS
 62
     7
100
AcDbVertex
100
AcDb2dVertex
 10
4.050781
 20
10.69043
 30
0.0
  0
SEQEND
  5
39
100
AcDbEntity
  8
VESSEL
  6
CONTINUOUS
 62
     7
  0
POLYLINE
  5
3A
100
AcDbEntity
  8
VESSEL
  6
CONTINUOUS
 62
     7
100
AcDb2dPolyline
 66
     1
 10
0.0
 20
0.0
 30
0.0
 40
0.016667
 41
0.016667
  0
VERTEX
  5
3B
100
AcDbEntity
  8
VESSEL
  6
CONTINUOUS
 62
     7
100
AcDbVertex
100
AcDb2dVertex
 10
3.910156
 20
10.699219
 30
0.0
  0
VERTEX
  5
3C
100
AcDbEntity
  8
VESSEL
  6
CONTINUOUS
 62
     7
100
AcDbVertex
100
AcDb2dVertex
 10
3.914063
 20
2.75
 30
0.0
  0
SEQEND
  5
3D
100
AcDbEntity
  8
VESSEL
  6
CONTINUOUS
 62
     7
  0
POLYLINE
  5
3E
100
AcDbEntity
  8
VESSEL
  6
CONTINUOUS
 62
     7
100
AcDb2dPolyline
 66
     1
 10
0.0
 20
0.0
 30
0.0
 40
0.016667
 41
0.016667
  0
VERTEX
  5
3F
100
AcDbEntity
  8
VESSEL
  6
CONTINUOUS
 62
     7
100
AcDbVertex
100
AcDb2dVertex
 10
4.0
 20
10.699219
 30
0.0
  0
VERTEX
  5
40
100
AcDbEntity
  8
VESSEL
  6
CONTINUOUS
 62
     7
100
AcDbVertex
100
AcDb2dVertex
 10
4.005208
 20
2.757161
 30
0.0
  0
SEQEND
  5
41
100
AcDbEntity
  8
VESSEL
  6
CONTINUOUS
 62
     7
  0
POLYLINE
  5
42
100
AcDbEntity
  8
VESSEL
  6
CONTINUOUS
 62
     7
100
AcDb2dPolyline
 66
     1
 10
0.0
 20
0.0
 30
0.0
 40
0.016667
 41
0.016667
  0
VERTEX
  5
43
100
AcDbEntity
  8
VESSEL
  6
CONTINUOUS
 62
     7
100
AcDbVertex
100
AcDb2dVertex
 10
4.953125
 20
2.772461
 30
0.0
  0
VERTEX
  5
44
100
AcDbEntity
  8
VESSEL
  6
CONTINUOUS
 62
     7
100
AcDbVertex
100
AcDb2dVertex
 10
4.945313
 20
2.768555
 30
0.0
  0
VERTEX
  5
45
100
AcDbEntity
  8
VESSEL
  6
CONTINUOUS
 62
     7
100
AcDbVertex
100
AcDb2dVertex
 10
4.945313
 20
2.621094
 30
0.0
  0
VERTEX
  5
46
100
AcDbEntity
  8
VESSEL
  6
CONTINUOUS
 62
     7
100
AcDbVertex
100
AcDb2dVertex
 10
4.958008
 20
2.621094
 30
0.0
  0
VERTEX
  5
47
100
AcDbEntity
  8
VESSEL
  6
CONTINUOUS
 62
     7
100
AcDbVertex
100
AcDb2dVertex
 10
4.958984
 20
2.499023
 30
0.0
  0
VERTEX
  5
48
100
AcDbEntity
  8
VESSEL
  6
CONTINUOUS
 62
     7
100
AcDbVertex
100
AcDb2dVertex
 10
5.076172
 20
2.496094
 30
0.0
  0
VERTEX
  5
49
100
AcDbEntity
  8
VESSEL
  6
CONTINUOUS
 62
     7
100
AcDbVertex
100
AcDb2dVertex
 10
5.078125
 20
2.702148
 30
0.0
  0
VERTEX
  5
4A
100
AcDbEntity
  8
VESSEL
  6
CONTINUOUS
 62
     7
100
AcDbVertex
100
AcDb2dVertex
 10
5.095703
 20
2.699219
 30
0.0
  0
VERTEX
  5
4B
100
AcDbEntity
  8
VESSEL
  6
CONTINUOUS
 62
     7
100
AcDbVertex
100
AcDb2dVertex
 10
5.09375
 20
2.753906
 30
0.0
  0
VERTEX
  5
4C
100
AcDbEntity
  8
VESSEL
  6
CONTINUOUS
 62
     7
100
AcDbVertex
100
AcDb2dVertex
 10
5.075195
 20
2.757813
 30
0.0
  0
VERTEX
  5
4D
100
AcDbEntity
  8
VESSEL
  6
CONTINUOUS
 62
     7
100
AcDbVertex
100
AcDb2dVertex
 10
5.070313
 20
2.773438
 30
0.0
  0
VERTEX
  5
4E
100
AcDbEntity
  8
VESSEL
  6
CONTINUOUS
 62
     7
100
AcDbVertex
100
AcDb2dVertex
 10
4.949219
 20
2.773438
 30
0.0
  0
VERTEX
  5
4F
100
AcDbEntity
  8
VESSEL
  6
CONTINUOUS
 62
     7
100
AcDbVertex
100
AcDb2dVertex
 10
4.949219
 20
2.748047
 30
0.0
  0
VERTEX
  5
50
100
AcDbEntity
  8
VESSEL
  6
CONTINUOUS
 62
     7
100
AcDbVertex
100
AcDb2dVertex
 10
3.49707
 20
2.75
 30
0.0
  0
SEQEND
  5
51
100
AcDbEntity
  8
VESSEL
  6
CONTINUOUS
 62
     7
  0
POLYLINE
  5
52
100
AcDbEntity
  8
VESSEL
  6
CONTINUOUS
 62
     7
100
AcDb2dPolyline
 66
     1
 10
0.0
 20
0.0
 30
0.0
 40
0.016667
 41
0.016667
  0
VERTEX
  5
53
100
AcDbEntity
  8
VESSEL
  6
CONTINUOUS
 62
     7
100
AcDbVertex
100
AcDb2dVertex
 10
3.589844
 20
2.568359
 30
0.0
  0
VERTEX
  5
54
100
AcDbEntity
  8
VESSEL
  6
CONTINUOUS
 62
     7
100
AcDbVertex
100
AcDb2dVertex
 10
3.945313
 20
5.351563
 30
0.0
  0
SEQEND
  5
55
100
AcDbEntity
  8
VESSEL
  6
CONTINUOUS
 62
     7
  0
POLYLINE
  5
56
100
AcDbEntity
  8
VESSEL
  6
CONTINUOUS
 62
     7
100
AcDb2dPolyline
 66
     1
 10
0.0
 20
0.0
 30
0.0
 40
0.016667
 41
0.016667
  0
VERTEX
  5
57
100
AcDbEntity
  8
VESSEL
  6
CONTINUOUS
 62
     7
100
AcDbVertex
100
AcDb2dVertex
 10
4.167969
 20
2.529297
 30
0.0
  0
VERTEX
  5
58
100
AcDbEntity
  8
VESSEL
  6
CONTINUOUS
 62
     7
100
AcDbVertex
100
AcDb2dVertex
 10
3.96582
 20
5.354492
 30
0.0
  0
SEQEND
  5
59
100
AcDbEntity
  8
VESSEL
  6
CONTINUOUS
 62
     7
  0
POLYLINE
  5
5A
100
AcDbEntity
  8
VESSEL
  6
CONTINUOUS
 62
     7
100
AcDb2dPolyline
 66
     1
 10
0.0
 20
0.0
 30
0.0
 40
0.016667
 41
0.016667
  0
VERTEX
  5
5B
100
AcDbEntity
  8
VESSEL
  6
CONTINUOUS
 62
     7
100
AcDbVertex
100
AcDb2dVertex
 10
3.910156
 20
8.140625
 30
0.0
  0
VERTEX
  5
5C
100
AcDbEntity
  8
VESSEL
  6
CONTINUOUS
 62
     7
100
AcDbVertex
100
AcDb2dVertex
 10
1.832031
 20
2.703125
 30
0.0
  0
SEQEND
  5
5D
100
AcDbEntity
  8
VESSEL
  6
CONTINUOUS
 62
     7
  0
POLYLINE
  5
5E
100
AcDbEntity
  8
VESSEL
  6
CONTINUOUS
 62
     7
100
AcDb2dPolyline
 66
     1
 10
0.0
 20
0.0
 30
0.0
 40
0.03
 41
0.03
  0
VERTEX
  5
5F
100
AcDbEntity
  8
VESSEL
  6
CONTINUOUS
 62
     7
100
AcDbVertex
100
AcDb2dVertex
 10
0.919922
 20
2.792969
 30
0.0
  0
VERTEX
  5
60
100
AcDbEntity
  8
VESSEL
  6
CONTINUOUS
 62
     7
100
AcDbVertex
100
AcDb2dVertex
 10
0.957031
 20
2.789063
 30
0.0
  0
VERTEX
  5
61
100
AcDbEntity
  8
VESSEL
  6
CONTINUOUS
 62
     7
100
AcDbVertex
100
AcDb2dVertex
 10
2.25
 20
2.65625
 30
0.0
  0
VERTEX
  5
62
100
AcDbEntity
  8
VESSEL
  6
CONTINUOUS
 62
     7
100
AcDbVertex
100
AcDb2dVertex
 10
3.585938
 20
2.546875
 30
0.0
  0
VERTEX
  5
63
100
AcDbEntity
  8
VESSEL
  6
CONTINUOUS
 62
     7
100
AcDbVertex
100
AcDb2dVertex
 10
4.160156
 20
2.515625
 30
0.0
  0
VERTEX
  5
64
100
AcDbEntity
  8
VESSEL
  6
CONTINUOUS
 62
     7
100
AcDbVertex
100
AcDb2dVertex
 10
5.519531
 20
2.46875
 30
0.0
  0
VERTEX
  5
65
100
AcDbEntity
  8
VESSEL
  6
CONTINUOUS
 62
     7
100
AcDbVertex
100
AcDb2dVertex
 10
6.566406
 20
2.460938
 30
0.0
  0
VERTEX
  5
66
100
AcDbEntity
  8
VESSEL
  6
CONTINUOUS
 62
     7
100
AcDbVertex
100
AcDb2dVertex
 10
7.117188
 20
2.476563
 30
0.0
  0
VERTEX
  5
67
100
AcDbEntity
  8
VESSEL
  6
CONTINUOUS
 62
     7
100
AcDbVertex
100
AcDb2dVertex
 10
7.546875
 20
2.492188
 30
0.0
  0
VERTEX
  5
68
100
AcDbEntity
  8
VESSEL
  6
CONTINUOUS
 62
     7
100
AcDbVertex
100
AcDb2dVertex
 10
7.707031
 20
2.519531
 30
0.0
  0
SEQEND
  5
69
100
AcDbEntity
  8
VESSEL
  6
CONTINUOUS
 62
     7
  0
POLYLINE
  5
6A
100
AcDbEntity
  8
VESSEL
  6
CONTINUOUS
 62
     7
100
AcDb2dPolyline
 66
     1
 10
0.0
 20
0.0
 30
0.0
 40
0.016667
 41
0.016667
  0
VERTEX
  5
6B
100
AcDbEntity
  8
VESSEL
  6
CONTINUOUS
 62
     7
100
AcDbVertex
100
AcDb2dVertex
 10
4.001953
 20
3.3125
 30
0.0
  0
VERTEX
  5
6C
100
AcDbEntity
  8
VESSEL
  6
CONTINUOUS
 62
     7
100
AcDbVertex
100
AcDb2dVertex
 10
6.673828
 20
3.3125
 30
0.0
  0
SEQEND
  5
6D
100
AcDbEntity
  8
VESSEL
  6
CONTINUOUS
 62
     7
  0
POLYLINE
  5
6E
100
AcDbEntity
  8
VESSEL
  6
CONTINUOUS
 62
     7
100
AcDb2dPolyline
 66
     1
 10
0.0
 20
0.0
 30
0.0
 40
0.03
 41
0.03
  0
VERTEX
  5
6F
100
AcDbEntity
  8
VESSEL
  6
CONTINUOUS
 62
     7
100
AcDbVertex
100
AcDb2dVertex
 10
4.022461
 20
3.243164
 30
0.0
  0
VERTEX
  5
70
100
AcDbEntity
  8
VESSEL
  6
CONTINUOUS
 62
     7
100
AcDbVertex
100
AcDb2dVertex
 10
6.671875
 20
3.242188
 30
0.0
  0
SEQEND
  5
71
100
AcDbEntity
  8
VESSEL
  6
CONTINUOUS
 62
     7
  0
POLYLINE
  5
72
100
AcDbEntity
  8
VESSEL
  6
CONTINUOUS
 62
     7
100
AcDb2dPolyline
 66
     1
 10
0.0
 20
0.0
 30
0.0
 40
0.016667
 41
0.016667
  0
VERTEX
  5
73
100
AcDbEntity
  8
VESSEL
  6
CONTINUOUS
 62
     7
100
AcDbVertex
100
AcDb2dVertex
 10
6.678711
 20
3.318359
 30
0.0
  0
VERTEX
  5
74
100
AcDbEntity
  8
VESSEL
  6
CONTINUOUS
 62
     7
100
AcDbVertex
100
AcDb2dVertex
 10
6.678711
 20
3.232422
 30
0.0
  0
SEQEND
  5
75
100
AcDbEntity
  8
VESSEL
  6
CONTINUOUS
 62
     7
  0
POLYLINE
  5
76
100
AcDbEntity
  8
VESSEL
  6
CONTINUOUS
 62
     7
100
AcDb2dPolyline
 66
     1
 10
0.0
 20
0.0
 30
0.0
  0
VERTEX
  5
77
100
AcDbEntity
  8
VESSEL
  6
CONTINUOUS
 62
     7
100
AcDbVertex
100
AcDb2dVertex
 10
1.232422
 20
2.65332
 30
0.0
  0
VERTEX
  5
78
100
AcDbEntity
  8
VESSEL
  6
CONTINUOUS
 62
     7
100
AcDbVertex
100
AcDb2dVertex
 10
1.893347
 20
2.579415
 30
0.0
  0
VERTEX
  5
79
100
AcDbEntity
  8
VESSEL
  6
CONTINUOUS
 62
     7
100
AcDbVertex
100
AcDb2dVertex
 10
2.425582
 20
2.53125
 30
0.0
  0
VERTEX
  5
7A
100
AcDbEntity
  8
VESSEL
  6
CONTINUOUS
 62
     7
100
AcDbVertex
100
AcDb2dVertex
 10
3.688665
 20
2.421875
 30
0.0
  0
VERTEX
  5
7B
100
AcDbEntity
  8
VESSEL
  6
CONTINUOUS
 62
     7
100
AcDbVertex
100
AcDb2dVertex
 10
4.24817
 20
2.392578
 30
0.0
  0
VERTEX
  5
7C
100
AcDbEntity
  8
VESSEL
  6
CONTINUOUS
 62
     7
100
AcDbVertex
100
AcDb2dVertex
 10
5.526576
 20
2.353516
 30
0.0
  0
VERTEX
  5
7D
100
AcDbEntity
  8
VESSEL
  6
CONTINUOUS
 62
     7
100
AcDbVertex
100
AcDb2dVertex
 10
6.518313
 20
2.339844
 30
0.0
  0
VERTEX
  5
7E
100
AcDbEntity
  8
VESSEL
  6
CONTINUOUS
 62
     7
100
AcDbVertex
100
AcDb2dVertex
 10
7.044925
 20
2.349609
 30
0.0
  0
VERTEX
  5
7F
100
AcDbEntity
  8
VESSEL
  6
CONTINUOUS
 62
     7
100
AcDbVertex
100
AcDb2dVertex
 10
7.447266
 20
2.364258
 30
0.0
  0
SEQEND
  5
80
100
AcDbEntity
  8
VESSEL
  6
CONTINUOUS
 62
     7
  0
POLYLINE
  5
81
100
AcDbEntity
  8
VESSEL
  6
CONTINUOUS
 62
     7
100
AcDb2dPolyline
 66
     1
 10
0.0
 20
0.0
 30
0.0
 40
0.016667
 41
0.016667
  0
VERTEX
  5
82
100
AcDbEntity
  8
VESSEL
  6
CONTINUOUS
 62
     7
100
AcDbVertex
100
AcDb2dVertex
 10
0.953125
 20
2.789063
 30
0.0
  0
VERTEX
  5
83
100
AcDbEntity
  8
VESSEL
  6
CONTINUOUS
 62
     7
100
AcDbVertex
100
AcDb2dVertex
 10
1.632813
 20
1.927734
 30
0.0
  0
SEQEND
  5
84
100
AcDbEntity
  8
VESSEL
  6
CONTINUOUS
 62
     7
  0
POLYLINE
  5
85
100
AcDbEntity
  8
VESSEL
  6
CONTINUOUS
 62
     7
100
AcDb2dPolyline
 66
     1
 10
0.0
 20
0.0
 30
0.0
 70
     1
  0
VERTEX
  5
86
100
AcDbEntity
  8
VESSEL
  6
CONTINUOUS
 62
     7
100
AcDbVertex
100
AcDb2dVertex
 10
1.590625
 20
1.990157
 30
0.0
  0
VERTEX
  5
87
100
AcDbEntity
  8
VESSEL
  6
CONTINUOUS
 62
     7
100
AcDbVertex
100
AcDb2dVertex
 10
7.565232
 20
1.990155
 30
0.0
  0
VERTEX
  5
88
100
AcDbEntity
  8
VESSEL
  6
CONTINUOUS
 62
     7
100
AcDbVertex
100
AcDb2dVertex
 10
7.548958
 20
1.901563
 30
0.0
  0
VERTEX
  5
89
100
AcDbEntity
  8
VESSEL
  6
CONTINUOUS
 62
     7
100
AcDbVertex
100
AcDb2dVertex
 10
1.63492
 20
1.905474
 30
0.0
  0
SEQEND
  5
8A
100
AcDbEntity
  8
VESSEL
  6
CONTINUOUS
 62
     7
  0
POLYLINE
  5
8B
100
AcDbEntity
  8
VESSEL
  6
CONTINUOUS
 62
     7
100
AcDb2dPolyline
 66
     1
 10
0.0
 20
0.0
 30
0.0
 70
     1
 40
0.016667
 41
0.016667
  0
VERTEX
  5
8C
100
AcDbEntity
  8
VESSEL
  6
CONTINUOUS
 62
     7
100
AcDbVertex
100
AcDb2dVertex
 10
7.554688
 20
1.917969
 30
0.0
  0
VERTEX
  5
8D
100
AcDbEntity
  8
VESSEL
  6
CONTINUOUS
 62
     7
100
AcDbVertex
100
AcDb2dVertex
 10
7.691406
 20
2.515625
 30
0.0
  0
VERTEX
  5
8E
100
AcDbEntity
  8
VESSEL
  6
CONTINUOUS
 62
     7
100
AcDbVertex
100
AcDb2dVertex
 10
7.554688
 20
2.492188
 30
0.0
  0
SEQEND
  5
8F
100
AcDbEntity
  8
VESSEL
  6
CONTINUOUS
 62
     7
  0
POLYLINE
  5
90
100
AcDbEntity
  8
VESSEL
  6
CONTINUOUS
 62
     7
100
AcDb2dPolyline
 66
     1
 10
0.0
 20
0.0
 30
0.0
 40
0.016667
 41
0.016667
  0
VERTEX
  5
91
100
AcDbEntity
  8
VESSEL
  6
CONTINUOUS
 62
     7
100
AcDbVertex
100
AcDb2dVertex
 10
5.914063
 20
2.464844
 30
0.0
  0
VERTEX
  5
92
100
AcDbEntity
  8
VESSEL
  6
CONTINUOUS
 62
     7
100
AcDbVertex
100
AcDb2dVertex
 10
5.916992
 20
2.589844
 30
0.0
  0
VERTEX
  5
93
100
AcDbEntity
  8
VESSEL
  6
CONTINUOUS
 62
     7
100
AcDbVertex
100
AcDb2dVertex
 10
6.988281
 20
2.589844
 30
0.0
  0
VERTEX
  5
94
100
AcDbEntity
  8
VESSEL
  6
CONTINUOUS
 62
     7
100
AcDbVertex
100
AcDb2dVertex
 10
7.017578
 20
2.572266
 30
0.0
  0
VERTEX
  5
95
100
AcDbEntity
  8
VESSEL
  6
CONTINUOUS
 62
     7
100
AcDbVertex
100
AcDb2dVertex
 10
7.036133
 20
2.544922
 30
0.0
  0
VERTEX
  5
96
100
AcDbEntity
  8
VESSEL
  6
CONTINUOUS
 62
     7
100
AcDbVertex
100
AcDb2dVertex
 10
7.043945
 20
2.509766
 30
0.0
  0
VERTEX
  5
97
100
AcDbEntity
  8
VESSEL
  6
CONTINUOUS
 62
     7
100
AcDbVertex
100
AcDb2dVertex
 10
7.043945
 20
2.476563
 30
0.0
  0
SEQEND
  5
98
100
AcDbEntity
  8
VESSEL
  6
CONTINUOUS
 62
     7
  0
POLYLINE
  5
99
100
AcDbEntity
  8
VESSEL
  6
CONTINUOUS
 62
     7
100
AcDb2dPolyline
 66
     1
 10
0.0
 20
0.0
 30
0.0
 40
0.03
 41
0.03
  0
VERTEX
  5
9A
100
AcDbEntity
  8
VESSEL
  6
CONTINUOUS
 62
     7
100
AcDbVertex
100
AcDb2dVertex
 10
5.080078
 20
2.580078
 30
0.0
  0
VERTEX
  5
9B
100
AcDbEntity
  8
VESSEL
  6
CONTINUOUS
 62
     7
100
AcDbVertex
100
AcDb2dVertex
 10
5.904297
 20
2.581055
 30
0.0
  0
SEQEND
  5
9C
100
AcDbEntity
  8
VESSEL
  6
CONTINUOUS
 62
     7
  0
POLYLINE
  5
9D
100
AcDbEntity
  8
VESSEL
  6
CONTINUOUS
 62
     7
100
AcDb2dPolyline
 66
     1
 10
0.0
 20
0.0
 30
0.0
 70
     1
  0
VERTEX
  5
9E
100
AcDbEntity
  8
VESSEL
  6
CONTINUOUS
 62
     7
100
AcDbVertex
100
AcDb2dVertex
 10
5.560547
 20
2.646484
 30
0.0
  0
VERTEX
  5
9F
100
AcDbEntity
  8
VESSEL
  6
CONTINUOUS
 62
     7
100
AcDbVertex
100
AcDb2dVertex
 10
5.554688
 20
2.626953
 30
0.0
  0
VERTEX
  5
A0
100
AcDbEntity
  8
VESSEL
  6
CONTINUOUS
 62
     7
100
AcDbVertex
100
AcDb2dVertex
 10
5.541992
 20
2.614258
 30
0.0
  0
VERTEX
  5
A1
100
AcDbEntity
  8
VESSEL
  6
CONTINUOUS
 62
     7
100
AcDbVertex
100
AcDb2dVertex
 10
5.540039
 20
2.595703
 30
0.0
  0
VERTEX
  5
A2
100
AcDbEntity
  8
VESSEL
  6
CONTINUOUS
 62
     7
100
AcDbVertex
100
AcDb2dVertex
 10
5.541016
 20
2.580078
 30
0.0
  0
VERTEX
  5
A3
100
AcDbEntity
  8
VESSEL
  6
CONTINUOUS
 62
     7
100
AcDbVertex
100
AcDb2dVertex
 10
5.490234
 20
2.582031
 30
0.0
  0
VERTEX
  5
A4
100
AcDbEntity
  8
VESSEL
  6
CONTINUOUS
 62
     7
100
AcDbVertex
100
AcDb2dVertex
 10
5.488281
 20
2.594727
 30
0.0
  0
VERTEX
  5
A5
100
AcDbEntity
  8
VESSEL
  6
CONTINUOUS
 62
     7
100
AcDbVertex
100
AcDb2dVertex
 10
5.488281
 20
2.616211
 30
0.0
  0
VERTEX
  5
A6
100
AcDbEntity
  8
VESSEL
  6
CONTINUOUS
 62
     7
100
AcDbVertex
100
AcDb2dVertex
 10
5.479492
 20
2.628906
 30
0.0
  0
VERTEX
  5
A7
100
AcDbEntity
  8
VESSEL
  6
CONTINUOUS
 62
     7
100
AcDbVertex
100
AcDb2dVertex
 10
5.46875
 20
2.647461
 30
0.0
  0
VERTEX
  5
A8
100
AcDbEntity
  8
VESSEL
  6
CONTINUOUS
 62
     7
100
AcDbVertex
100
AcDb2dVertex
 10
5.46875
 20
2.733398
 30
0.0
  0
VERTEX
  5
A9
100
AcDbEntity
  8
VESSEL
  6
CONTINUOUS
 62
     7
100
AcDbVertex
100
AcDb2dVertex
 10
5.482422
 20
2.759766
 30
0.0
  0
VERTEX
  5
AA
100
AcDbEntity
  8
VESSEL
  6
CONTINUOUS
 62
     7
100
AcDbVertex
100
AcDb2dVertex
 10
5.505859
 20
2.768555
 30
0.0
  0
VERTEX
  5
AB
100
AcDbEntity
  8
VESSEL
  6
CONTINUOUS
 62
     7
100
AcDbVertex
100
AcDb2dVertex
 10
5.52832
 20
2.765625
 30
0.0
  0
VERTEX
  5
AC
100
AcDbEntity
  8
VESSEL
  6
CONTINUOUS
 62
     7
100
AcDbVertex
100
AcDb2dVertex
 10
5.547852
 20
2.754395
 30
0.0
  0
VERTEX
  5
AD
100
AcDbEntity
  8
VESSEL
  6
CONTINUOUS
 62
     7
100
AcDbVertex
100
AcDb2dVertex
 10
5.557617
 20
2.737305
 30
0.0
  0
SEQEND
  5
AE
100
AcDbEntity
  8
VESSEL
  6
CONTINUOUS
 62
     7
  0
POLYLINE
  5
AF
100
AcDbEntity
  8
VESSEL
  6
CONTINUOUS
 62
     7
100
AcDb2dPolyline
 66
     1
 10
0.0
 20
0.0
 30
0.0
  0
VERTEX
  5
B0
100
AcDbEntity
  8
VESSEL
  6
CONTINUOUS
 62
     7
100
AcDbVertex
100
AcDb2dVertex
 10
5.479492
 20
2.716797
 30
0.0
  0
VERTEX
  5
B1
100
AcDbEntity
  8
VESSEL
  6
CONTINUOUS
 62
     7
100
AcDbVertex
100
AcDb2dVertex
 10
5.55957
 20
2.717773
 30
0.0
  0
SEQEND
  5
B2
100
AcDbEntity
  8
VESSEL
  6
CONTINUOUS
 62
     7
  0
POLYLINE
  5
B3
100
AcDbEntity
  8
VESSEL
  6
CONTINUOUS
 62
     7
100
AcDb2dPolyline
 66
     1
 10
0.0
 20
0.0
 30
0.0
  0
VERTEX
  5
B4
100
AcDbEntity
  8
VESSEL
  6
CONTINUOUS
 62
     7
100
AcDbVertex
100
AcDb2dVertex
 10
5.478516
 20
2.691406
 30
0.0
  0
VERTEX
  5
B5
100
AcDbEntity
  8
VESSEL
  6
CONTINUOUS
 62
     7
100
AcDbVertex
100
AcDb2dVertex
 10
5.561523
 20
2.691406
 30
0.0
  0
SEQEND
  5
B6
100
AcDbEntity
  8
VESSEL
  6
CONTINUOUS
 62
     7
  0
POLYLINE
  5
B7
100
AcDbEntity
  8
VESSEL
  6
CONTINUOUS
 62
     7
100
AcDb2dPolyline
 66
     1
 10
0.0
 20
0.0
 30
0.0
  0
VERTEX
  5
B8
100
AcDbEntity
  8
VESSEL
  6
CONTINUOUS
 62
     7
100
AcDbVertex
100
AcDb2dVertex
 10
5.605469
 20
2.578125
 30
0.0
  0
VERTEX
  5
B9
100
AcDbEntity
  8
VESSEL
  6
CONTINUOUS
 62
     7
100
AcDbVertex
100
AcDb2dVertex
 10
5.60498
 20
2.832031
 30
0.0
  0
VERTEX
  5
BA
100
AcDbEntity
  8
VESSEL
  6
CONTINUOUS
 62
     7
100
AcDbVertex
100
AcDb2dVertex
 10
5.584961
 20
2.832031
 30
0.0
  0
VERTEX
  5
BB
100
AcDbEntity
  8
VESSEL
  6
CONTINUOUS
 62
     7
100
AcDbVertex
100
AcDb2dVertex
 10
5.584961
 20
2.579627
 30
0.0
  0
SEQEND
  5
BC
100
AcDbEntity
  8
VESSEL
  6
CONTINUOUS
 62
     7
  0
POLYLINE
  5
BD
100
AcDbEntity
  8
VESSEL
  6
CONTINUOUS
 62
     7
100
AcDb2dPolyline
 66
     1
 10
0.0
 20
0.0
 30
0.0
  0
VERTEX
  5
BE
100
AcDbEntity
  8
VESSEL
  6
CONTINUOUS
 62
     7
100
AcDbVertex
100
AcDb2dVertex
 10
5.566406
 20
2.706055
 30
0.0
  0
VERTEX
  5
BF
100
AcDbEntity
  8
VESSEL
  6
CONTINUOUS
 62
     7
100
AcDbVertex
100
AcDb2dVertex
 10
5.583984
 20
2.706055
 30
0.0
  0
SEQEND
  5
C0
100
AcDbEntity
  8
VESSEL
  6
CONTINUOUS
 62
     7
  0
POLYLINE
  5
C1
100
AcDbEntity
  8
VESSEL
  6
CONTINUOUS
 62
     7
100
AcDb2dPolyline
 66
     1
 10
0.0
 20
0.0
 30
0.0
 40
0.016667
 41
0.016667
  0
VERTEX
  5
C2
100
AcDbEntity
  8
VESSEL
  6
CONTINUOUS
 62
     7
100
AcDbVertex
100
AcDb2dVertex
 10
2.380859
 20
2.648438
 30
0.0
  0
VERTEX
  5
C3
100
AcDbEntity
  8
VESSEL
  6
CONTINUOUS
 62
     7
100
AcDbVertex
100
AcDb2dVertex
 10
2.384766
 20
2.673828
 30
0.0
  0
VERTEX
  5
C4
100
AcDbEntity
  8
VESSEL
  6
CONTINUOUS
 62
     7
100
AcDbVertex
100
AcDb2dVertex
 10
2.396484
 20
2.697266
 30
0.0
  0
VERTEX
  5
C5
100
AcDbEntity
  8
VESSEL
  6
CONTINUOUS
 62
     7
100
AcDbVertex
100
AcDb2dVertex
 10
2.414063
 20
2.712891
 30
0.0
  0
VERTEX
  5
C6
100
AcDbEntity
  8
VESSEL
  6
CONTINUOUS
 62
     7
100
AcDbVertex
100
AcDb2dVertex
 10
2.435547
 20
2.726563
 30
0.0
  0
VERTEX
  5
C7
100
AcDbEntity
  8
VESSEL
  6
CONTINUOUS
 62
     7
100
AcDbVertex
100
AcDb2dVertex
 10
2.461914
 20
2.737305
 30
0.0
  0
VERTEX
  5
C8
100
AcDbEntity
  8
VESSEL
  6
CONTINUOUS
 62
     7
100
AcDbVertex
100
AcDb2dVertex
 10
3.490234
 20
2.729492
 30
0.0
  0
VERTEX
  5
C9
100
AcDbEntity
  8
VESSEL
  6
CONTINUOUS
 62
     7
100
AcDbVertex
100
AcDb2dVertex
 10
3.493164
 20
2.749023
 30
0.0
  0
SEQEND
  5
CA
100
AcDbEntity
  8
VESSEL
  6
CONTINUOUS
 62
     7
  0
POLYLINE
  5
CB
100
AcDbEntity
  8
VESSEL
  6
CONTINUOUS
 62
     7
100
AcDb2dPolyline
 66
     1
 10
0.0
 20
0.0
 30
0.0
 40
0.016667
 41
0.016667
  0
VERTEX
  5
CC
100
AcDbEntity
  8
VESSEL
  6
CONTINUOUS
 62
     7
100
AcDbVertex
100
AcDb2dVertex
 10
2.708008
 20
2.626953
 30
0.0
  0
VERTEX
  5
CD
100
AcDbEntity
  8
VESSEL
  6
CONTINUOUS
 62
     7
100
AcDbVertex
100
AcDb2dVertex
 10
2.709961
 20
2.641602
 30
0.0
  0
VERTEX
  5
CE
100
AcDbEntity
  8
VESSEL
  6
CONTINUOUS
 62
     7
100
AcDbVertex
100
AcDb2dVertex
 10
2.722656
 20
2.650391
 30
0.0
  0
VERTEX
  5
CF
100
AcDbEntity
  8
VESSEL
  6
CONTINUOUS
 62
     7
100
AcDbVertex
100
AcDb2dVertex
 10
2.855469
 20
2.645508
 30
0.0
  0
VERTEX
  5
D0
100
AcDbEntity
  8
VESSEL
  6
CONTINUOUS
 62
     7
100
AcDbVertex
100
AcDb2dVertex
 10
2.869141
 20
2.636719
 30
0.0
  0
VERTEX
  5
D1
100
AcDbEntity
  8
VESSEL
  6
CONTINUOUS
 62
     7
100
AcDbVertex
100
AcDb2dVertex
 10
2.873047
 20
2.611328
 30
0.0
  0
SEQEND
  5
D2
100
AcDbEntity
  8
VESSEL
  6
CONTINUOUS
 62
     7
  0
POLYLINE
  5
D3
100
AcDbEntity
  8
VESSEL
  6
CONTINUOUS
 62
     7
100
AcDb2dPolyline
 66
     1
 10
0.0
 20
0.0
 30
0.0
 40
0.016667
 41
0.016667
  0
VERTEX
  5
D4
100
AcDbEntity
  8
VESSEL
  6
CONTINUOUS
 62
     7
100
AcDbVertex
100
AcDb2dVertex
 10
3.302734
 20
2.583984
 30
0.0
  0
VERTEX
  5
D5
100
AcDbEntity
  8
VESSEL
  6
CONTINUOUS
 62
     7
100
AcDbVertex
100
AcDb2dVertex
 10
3.303711
 20
2.608398
 30
0.0
  0
VERTEX
  5
D6
100
AcDbEntity
  8
VESSEL
  6
CONTINUOUS
 62
     7
100
AcDbVertex
100
AcDb2dVertex
 10
3.314453
 20
2.615234
 30
0.0
  0
VERTEX
  5
D7
100
AcDbEntity
  8
VESSEL
  6
CONTINUOUS
 62
     7
100
AcDbVertex
100
AcDb2dVertex
 10
3.449219
 20
2.608398
 30
0.0
  0
VERTEX
  5
D8
100
AcDbEntity
  8
VESSEL
  6
CONTINUOUS
 62
     7
100
AcDbVertex
100
AcDb2dVertex
 10
3.470703
 20
2.603516
 30
0.0
  0
VERTEX
  5
D9
100
AcDbEntity
  8
VESSEL
  6
CONTINUOUS
 62
     7
100
AcDbVertex
100
AcDb2dVertex
 10
3.467773
 20
2.560547
 30
0.0
  0
VERTEX
  5
DA
100
AcDbEntity
  8
VESSEL
  6
CONTINUOUS
 62
     7
100
AcDbVertex
100
AcDb2dVertex
 10
3.466797
 20
2.558594
 30
0.0
  0
SEQEND
  5
DB
100
AcDbEntity
  8
VESSEL
  6
CONTINUOUS
 62
     7
  0
POLYLINE
  5
DC
100
AcDbEntity
  8
VESSEL
  6
CONTINUOUS
 62
     7
100
AcDb2dPolyline
 66
     1
 10
0.0
 20
0.0
 30
0.0
 40
0.016667
 41
0.016667
  0
VERTEX
  5
DD
100
AcDbEntity
  8
VESSEL
  6
CONTINUOUS
 62
     7
100
AcDbVertex
100
AcDb2dVertex
 10
3.863281
 20
2.549805
 30
0.0
  0
VERTEX
  5
DE
100
AcDbEntity
  8
VESSEL
  6
CONTINUOUS
 62
     7
100
AcDbVertex
100
AcDb2dVertex
 10
3.863281
 20
2.548828
 30
0.0
  0
VERTEX
  5
DF
100
AcDbEntity
  8
VESSEL
  6
CONTINUOUS
 62
     7
100
AcDbVertex
100
AcDb2dVertex
 10
3.864258
 20
2.563477
 30
0.0
  0
VERTEX
  5
E0
100
AcDbEntity
  8
VESSEL
  6
CONTINUOUS
 62
     7
100
AcDbVertex
100
AcDb2dVertex
 10
3.873047
 20
2.578125
 30
0.0
  0
VERTEX
  5
E1
100
AcDbEntity
  8
VESSEL
  6
CONTINUOUS
 62
     7
100
AcDbVertex
100
AcDb2dVertex
 10
3.888672
 20
2.587891
 30
0.0
  0
VERTEX
  5
E2
100
AcDbEntity
  8
VESSEL
  6
CONTINUOUS
 62
     7
100
AcDbVertex
100
AcDb2dVertex
 10
4.011719
 20
2.587891
 30
0.0
  0
VERTEX
  5
E3
100
AcDbEntity
  8
VESSEL
  6
CONTINUOUS
 62
     7
100
AcDbVertex
100
AcDb2dVertex
 10
4.027344
 20
2.578125
 30
0.0
  0
VERTEX
  5
E4
100
AcDbEntity
  8
VESSEL
  6
CONTINUOUS
 62
     7
100
AcDbVertex
100
AcDb2dVertex
 10
4.032227
 20
2.564453
 30
0.0
  0
VERTEX
  5
E5
100
AcDbEntity
  8
VESSEL
  6
CONTINUOUS
 62
     7
100
AcDbVertex
100
AcDb2dVertex
 10
4.03125
 20
2.533203
 30
0.0
  0
VERTEX
  5
E6
100
AcDbEntity
  8
VESSEL
  6
CONTINUOUS
 62
     7
100
AcDbVertex
100
AcDb2dVertex
 10
4.027344
 20
2.53125
 30
0.0
  0
SEQEND
  5
E7
100
AcDbEntity
  8
VESSEL
  6
CONTINUOUS
 62
     7
  0
POLYLINE
  5
E8
100
AcDbEntity
  8
VESSEL
  6
CONTINUOUS
 62
     7
100
AcDb2dPolyline
 66
     1
 10
0.0
 20
0.0
 30
0.0
 40
0.016667
 41
0.016667
  0
VERTEX
  5
E9
100
AcDbEntity
  8
VESSEL
  6
CONTINUOUS
 62
     7
100
AcDbVertex
100
AcDb2dVertex
 10
4.650391
 20
2.503906
 30
0.0
  0
VERTEX
  5
EA
100
AcDbEntity
  8
VESSEL
  6
CONTINUOUS
 62
     7
100
AcDbVertex
100
AcDb2dVertex
 10
4.652344
 20
2.539063
 30
0.0
  0
VERTEX
  5
EB
100
AcDbEntity
  8
VESSEL
  6
CONTINUOUS
 62
     7
100
AcDbVertex
100
AcDb2dVertex
 10
4.654297
 20
2.554688
 30
0.0
  0
VERTEX
  5
EC
100
AcDbEntity
  8
VESSEL
  6
CONTINUOUS
 62
     7
100
AcDbVertex
100
AcDb2dVertex
 10
4.671875
 20
2.572266
 30
0.0
  0
VERTEX
  5
ED
100
AcDbEntity
  8
VESSEL
  6
CONTINUOUS
 62
     7
100
AcDbVertex
100
AcDb2dVertex
 10
4.853516
 20
2.572266
 30
0.0
  0
VERTEX
  5
EE
100
AcDbEntity
  8
VESSEL
  6
CONTINUOUS
 62
     7
100
AcDbVertex
100
AcDb2dVertex
 10
4.871094
 20
2.564453
 30
0.0
  0
VERTEX
  5
EF
100
AcDbEntity
  8
VESSEL
  6
CONTINUOUS
 62
     7
100
AcDbVertex
100
AcDb2dVertex
 10
4.87793
 20
2.542969
 30
0.0
  0
VERTEX
  5
F0
100
AcDbEntity
  8
VESSEL
  6
CONTINUOUS
 62
     7
100
AcDbVertex
100
AcDb2dVertex
 10
4.876953
 20
2.511719
 30
0.0
  0
VERTEX
  5
F1
100
AcDbEntity
  8
VESSEL
  6
CONTINUOUS
 62
     7
100
AcDbVertex
100
AcDb2dVertex
 10
4.879883
 20
2.501953
 30
0.0
  0
SEQEND
  5
F2
100
AcDbEntity
  8
VESSEL
  6
CONTINUOUS
 62
     7
  0
POLYLINE
  5
F3
100
AcDbEntity
  8
VESSEL
  6
CONTINUOUS
 62
     7
100
AcDb2dPolyline
 66
     1
 10
0.0
 20
0.0
 30
0.0
 40
0.016667
 41
0.016667
  0
VERTEX
  5
F4
100
AcDbEntity
  8
VESSEL
  6
CONTINUOUS
 62
     7
100
AcDbVertex
100
AcDb2dVertex
 10
6.102539
 20
2.472656
 30
0.0
  0
VERTEX
  5
F5
100
AcDbEntity
  8
VESSEL
  6
CONTINUOUS
 62
     7
100
AcDbVertex
100
AcDb2dVertex
 10
6.103516
 20
2.496094
 30
0.0
  0
VERTEX
  5
F6
100
AcDbEntity
  8
VESSEL
  6
CONTINUOUS
 62
     7
100
AcDbVertex
100
AcDb2dVertex
 10
6.114258
 20
2.522461
 30
0.0
  0
VERTEX
  5
F7
100
AcDbEntity
  8
VESSEL
  6
CONTINUOUS
 62
     7
100
AcDbVertex
100
AcDb2dVertex
 10
6.134766
 20
2.53125
 30
0.0
  0
VERTEX
  5
F8
100
AcDbEntity
  8
VESSEL
  6
CONTINUOUS
 62
     7
100
AcDbVertex
100
AcDb2dVertex
 10
6.277344
 20
2.53125
 30
0.0
  0
VERTEX
  5
F9
100
AcDbEntity
  8
VESSEL
  6
CONTINUOUS
 62
     7
100
AcDbVertex
100
AcDb2dVertex
 10
6.302734
 20
2.513672
 30
0.0
  0
VERTEX
  5
FA
100
AcDbEntity
  8
VESSEL
  6
CONTINUOUS
 62
     7
100
AcDbVertex
100
AcDb2dVertex
 10
6.303711
 20
2.490234
 30
0.0
  0
VERTEX
  5
FB
100
AcDbEntity
  8
VESSEL
  6
CONTINUOUS
 62
     7
100
AcDbVertex
100
AcDb2dVertex
 10
6.304688
 20
2.474609
 30
0.0
  0
SEQEND
  5
FC
100
AcDbEntity
  8
VESSEL
  6
CONTINUOUS
 62
     7
  0
POLYLINE
  5
FD
100
AcDbEntity
  8
VESSEL
  6
CONTINUOUS
 62
     7
100
AcDb2dPolyline
 66
     1
 10
0.0
 20
0.0
 30
0.0
 40
0.016667
 41
0.016667
  0
VERTEX
  5
FE
100
AcDbEntity
  8
VESSEL
  6
CONTINUOUS
 62
     7
100
AcDbVertex
100
AcDb2dVertex
 10
6.702148
 20
2.474609
 30
0.0
  0
VERTEX
  5
FF
100
AcDbEntity
  8
VESSEL
  6
CONTINUOUS
 62
     7
100
AcDbVertex
100
AcDb2dVertex
 10
6.703125
 20
2.5
 30
0.0
  0
VERTEX
  5
100
100
AcDbEntity
  8
VESSEL
  6
CONTINUOUS
 62
     7
100
AcDbVertex
100
AcDb2dVertex
 10
6.711914
 20
2.517578
 30
0.0
  0
VERTEX
  5
101
100
AcDbEntity
  8
VESSEL
  6
CONTINUOUS
 62
     7
100
AcDbVertex
100
AcDb2dVertex
 10
6.730469
 20
2.53125
 30
0.0
  0
VERTEX
  5
102
100
AcDbEntity
  8
VESSEL
  6
CONTINUOUS
 62
     7
100
AcDbVertex
100
AcDb2dVertex
 10
6.865234
 20
2.532227
 30
0.0
  0
VERTEX
  5
103
100
AcDbEntity
  8
VESSEL
  6
CONTINUOUS
 62
     7
100
AcDbVertex
100
AcDb2dVertex
 10
6.875977
 20
2.520508
 30
0.0
  0
VERTEX
  5
104
100
AcDbEntity
  8
VESSEL
  6
CONTINUOUS
 62
     7
100
AcDbVertex
100
AcDb2dVertex
 10
6.881836
 20
2.5
 30
0.0
  0
VERTEX
  5
105
100
AcDbEntity
  8
VESSEL
  6
CONTINUOUS
 62
     7
100
AcDbVertex
100
AcDb2dVertex
 10
6.882813
 20
2.473633
 30
0.0
  0
SEQEND
  5
106
100
AcDbEntity
  8
VESSEL
  6
CONTINUOUS
 62
     7
  0
POLYLINE
  5
107
100
AcDbEntity
  8
VESSEL
  6
CONTINUOUS
 62
     7
100
AcDb2dPolyline
 66
     1
 10
0.0
 20
0.0
 30
0.0
 40
0.016667
 41
0.016667
  0
VERTEX
  5
108
100
AcDbEntity
  8
VESSEL
  6
CONTINUOUS
 62
     7
100
AcDbVertex
100
AcDb2dVertex
 10
7.607422
 20
2.544922
 30
0.0
  0
VERTEX
  5
109
100
AcDbEntity
  8
VESSEL
  6
CONTINUOUS
 62
     7
100
AcDbVertex
100
AcDb2dVertex
 10
7.625
 20
2.507813
 30
0.0
  0
SEQEND
  5
10A
100
AcDbEntity
  8
VESSEL
  6
CONTINUOUS
 62
     7
  0
POLYLINE
  5
10B
100
AcDbEntity
  8
VESSEL
  6
CONTINUOUS
 62
     7
100
AcDb2dPolyline
 66
     1
 10
0.0
 20
0.0
 30
0.0
 70
     1
 40
0.016667
 41
0.016667
  0
VERTEX
  5
10C
100
AcDbEntity
  8
VESSEL
  6
CONTINUOUS
 62
     7
100
AcDbVertex
100
AcDb2dVertex
 10
3.491211
 20
2.748047
 30
0.0
  0
VERTEX
  5
10D
100
AcDbEntity
  8
VESSEL
  6
CONTINUOUS
 62
     7
100
AcDbVertex
100
AcDb2dVertex
 10
3.490234
 20
2.695313
 30
0.0
  0
VERTEX
  5
10E
100
AcDbEntity
  8
VESSEL
  6
CONTINUOUS
 62
     7
100
AcDbVertex
100
AcDb2dVertex
 10
3.898438
 20
2.695313
 30
0.0
  0
VERTEX
  5
10F
100
AcDbEntity
  8
VESSEL
  6
CONTINUOUS
 62
     7
100
AcDbVertex
100
AcDb2dVertex
 10
3.898438
 20
2.75
 30
0.0
  0
SEQEND
  5
110
100
AcDbEntity
  8
VESSEL
  6
CONTINUOUS
 62
     7
  0
POLYLINE
  5
111
100
AcDbEntity
  8
VESSEL
  6
CONTINUOUS
 62
     7
100
AcDb2dPolyline
 66
     1
 10
0.0
 20
0.0
 30
0.0
 70
     1
 40
0.016667
 41
0.016667
  0
VERTEX
  5
112
100
AcDbEntity
  8
VESSEL
  6
CONTINUOUS
 62
     7
100
AcDbVertex
100
AcDb2dVertex
 10
3.898438
 20
2.743164
 30
0.0
  0
VERTEX
  5
113
100
AcDbEntity
  8
VESSEL
  6
CONTINUOUS
 62
     7
100
AcDbVertex
100
AcDb2dVertex
 10
3.897461
 20
2.697266
 30
0.0
  0
VERTEX
  5
114
100
AcDbEntity
  8
VESSEL
  6
CONTINUOUS
 62
     7
100
AcDbVertex
100
AcDb2dVertex
 10
4.017578
 20
2.697266
 30
0.0
  0
VERTEX
  5
115
100
AcDbEntity
  8
VESSEL
  6
CONTINUOUS
 62
     7
100
AcDbVertex
100
AcDb2dVertex
 10
4.021484
 20
2.742188
 30
0.0
  0
SEQEND
  5
116
100
AcDbEntity
  8
VESSEL
  6
CONTINUOUS
 62
     7
  0
POLYLINE
  5
117
100
AcDbEntity
  8
VESSEL
  6
CONTINUOUS
 62
     7
100
AcDb2dPolyline
 66
     1
 10
0.0
 20
0.0
 30
0.0
 40
0.016667
 41
0.016667
  0
VERTEX
  5
118
100
AcDbEntity
  8
VESSEL
  6
CONTINUOUS
 62
     7
100
AcDbVertex
100
AcDb2dVertex
 10
4.023438
 20
2.693359
 30
0.0
  0
VERTEX
  5
119
100
AcDbEntity
  8
VESSEL
  6
CONTINUOUS
 62
     7
100
AcDbVertex
100
AcDb2dVertex
 10
4.310547
 20
2.691406
 30
0.0
  0
VERTEX
  5
11A
100
AcDbEntity
  8
VESSEL
  6
CONTINUOUS
 62
     7
100
AcDbVertex
100
AcDb2dVertex
 10
4.310547
 20
2.701172
 30
0.0
  0
VERTEX
  5
11B
100
AcDbEntity
  8
VESSEL
  6
CONTINUOUS
 62
     7
100
AcDbVertex
100
AcDb2dVertex
 10
4.947266
 20
2.697266
 30
0.0
  0
SEQEND
  5
11C
100
AcDbEntity
  8
VESSEL
  6
CONTINUOUS
 62
     7
  0
POLYLINE
  5
11D
100
AcDbEntity
  8
VESSEL
  6
CONTINUOUS
 62
     7
100
AcDb2dPolyline
 66
     1
 10
0.0
 20
0.0
 30
0.0
 40
0.016667
 41
0.016667
  0
VERTEX
  5
11E
100
AcDbEntity
  8
VESSEL
  6
CONTINUOUS
 62
     7
100
AcDbVertex
100
AcDb2dVertex
 10
4.146484
 20
2.748047
 30
0.0
  0
VERTEX
  5
11F
100
AcDbEntity
  8
VESSEL
  6
CONTINUOUS
 62
     7
100
AcDbVertex
100
AcDb2dVertex
 10
4.146484
 20
2.693359
 30
0.0
  0
SEQEND
  5
120
100
AcDbEntity
  8
VESSEL
  6
CONTINUOUS
 62
     7
  0
POLYLINE
  5
121
100
AcDbEntity
  8
VESSEL
  6
CONTINUOUS
 62
     7
100
AcDb2dPolyline
 66
     1
 10
0.0
 20
0.0
 30
0.0
 40
0.016667
 41
0.016667
  0
VERTEX
  5
122
100
AcDbEntity
  8
VESSEL
  6
CONTINUOUS
 62
     7
100
AcDbVertex
100
AcDb2dVertex
 10
4.179688
 20
2.746094
 30
0.0
  0
VERTEX
  5
123
100
AcDbEntity
  8
VESSEL
  6
CONTINUOUS
 62
     7
100
AcDbVertex
100
AcDb2dVertex
 10
4.178711
 20
2.681641
 30
0.0
  0
SEQEND
  5
124
100
AcDbEntity
  8
VESSEL
  6
CONTINUOUS
 62
     7
  0
POLYLINE
  5
125
100
AcDbEntity
  8
VESSEL
  6
CONTINUOUS
 62
     7
100
AcDb2dPolyline
 66
     1
 10
0.0
 20
0.0
 30
0.0
 40
0.016667
 41
0.016667
  0
VERTEX
  5
126
100
AcDbEntity
  8
VESSEL
  6
CONTINUOUS
 62
     7
100
AcDbVertex
100
AcDb2dVertex
 10
4.964844
 20
2.613281
 30
0.0
  0
VERTEX
  5
127
100
AcDbEntity
  8
VESSEL
  6
CONTINUOUS
 62
     7
100
AcDbVertex
100
AcDb2dVertex
 10
5.069336
 20
2.613281
 30
0.0
  0
SEQEND
  5
128
100
AcDbEntity
  8
VESSEL
  6
CONTINUOUS
 62
     7
  0
POLYLINE
  5
129
100
AcDbEntity
  8
VESSEL
  6
CONTINUOUS
 62
     7
100
AcDb2dPolyline
 66
     1
 10
0.0
 20
0.0
 30
0.0
 40
0.016667
 41
0.016667
  0
VERTEX
  5
12A
100
AcDbEntity
  8
VESSEL
  6
CONTINUOUS
 62
     7
100
AcDbVertex
100
AcDb2dVertex
 10
4.376953
 20
2.511719
 30
0.0
  0
VERTEX
  5
12B
100
AcDbEntity
  8
VESSEL
  6
CONTINUOUS
 62
     7
100
AcDbVertex
100
AcDb2dVertex
 10
4.378906
 20
2.539063
 30
0.0
  0
VERTEX
  5
12C
100
AcDbEntity
  8
VESSEL
  6
CONTINUOUS
 62
     7
100
AcDbVertex
100
AcDb2dVertex
 10
4.380859
 20
2.554688
 30
0.0
  0
VERTEX
  5
12D
100
AcDbEntity
  8
VESSEL
  6
CONTINUOUS
 62
     7
100
AcDbVertex
100
AcDb2dVertex
 10
4.398438
 20
2.572266
 30
0.0
  0
VERTEX
  5
12E
100
AcDbEntity
  8
VESSEL
  6
CONTINUOUS
 62
     7
100
AcDbVertex
100
AcDb2dVertex
 10
4.580078
 20
2.572266
 30
0.0
  0
VERTEX
  5
12F
100
AcDbEntity
  8
VESSEL
  6
CONTINUOUS
 62
     7
100
AcDbVertex
100
AcDb2dVertex
 10
4.597656
 20
2.564453
 30
0.0
  0
VERTEX
  5
130
100
AcDbEntity
  8
VESSEL
  6
CONTINUOUS
 62
     7
100
AcDbVertex
100
AcDb2dVertex
 10
4.601563
 20
2.546875
 30
0.0
  0
VERTEX
  5
131
100
AcDbEntity
  8
VESSEL
  6
CONTINUOUS
 62
     7
100
AcDbVertex
100
AcDb2dVertex
 10
4.603516
 20
2.511719
 30
0.0
  0
SEQEND
  5
132
100
AcDbEntity
  8
VESSEL
  6
CONTINUOUS
 62
     7
  0
POLYLINE
  5
133
100
AcDbEntity
  8
VESSEL
  6
CONTINUOUS
 62
     7
100
AcDb2dPolyline
 66
     1
 10
0.0
 20
0.0
 30
0.0
  0
VERTEX
  5
134
100
AcDbEntity
  8
VESSEL
  6
CONTINUOUS
 62
     7
100
AcDbVertex
100
AcDb2dVertex
 10
4.947266
 20
2.597656
 30
0.0
  0
VERTEX
  5
135
100
AcDbEntity
  8
VESSEL
  6
CONTINUOUS
 62
     7
100
AcDbVertex
100
AcDb2dVertex
 10
4.298828
 20
2.597656
 30
0.0
  0
VERTEX
  5
136
100
AcDbEntity
  8
VESSEL
  6
CONTINUOUS
 62
     7
100
AcDbVertex
100
AcDb2dVertex
 10
3.705078
 20
2.619141
 30
0.0
  0
VERTEX
  5
137
100
AcDbEntity
  8
VESSEL
  6
CONTINUOUS
 62
     7
100
AcDbVertex
100
AcDb2dVertex
 10
2.925781
 20
2.658203
 30
0.0
  0
VERTEX
  5
138
100
AcDbEntity
  8
VESSEL
  6
CONTINUOUS
 62
     7
100
AcDbVertex
100
AcDb2dVertex
 10
2.486328
 20
2.679688
 30
0.0
  0
VERTEX
  5
139
100
AcDbEntity
  8
VESSEL
  6
CONTINUOUS
 62
     7
100
AcDbVertex
100
AcDb2dVertex
 10
2.388672
 20
2.6875
 30
0.0
  0
SEQEND
  5
13A
100
AcDbEntity
  8
VESSEL
  6
CONTINUOUS
 62
     7
  0
POLYLINE
  5
13B
100
AcDbEntity
  8
VESSEL
  6
CONTINUOUS
 62
     7
100
AcDb2dPolyline
 66
     1
 10
0.0
 20
0.0
 30
0.0
 40
0.016667
 41
0.016667
  0
VERTEX
  5
13C
100
AcDbEntity
  8
VESSEL
  6
CONTINUOUS
 62
     7
100
AcDbVertex
100
AcDb2dVertex
 10
5.923828
 20
2.599609
 30
0.0
  0
VERTEX
  5
13D
100
AcDbEntity
  8
VESSEL
  6
CONTINUOUS
 62
     7
100
AcDbVertex
100
AcDb2dVertex
 10
5.922852
 20
2.70166
 30
0.0
  0
VERTEX
  5
13E
100
AcDbEntity
  8
VESSEL
  6
CONTINUOUS
 62
     7
100
AcDbVertex
100
AcDb2dVertex
 10
5.939453
 20
2.701172
 30
0.0
  0
VERTEX
  5
13F
100
AcDbEntity
  8
VESSEL
  6
CONTINUOUS
 62
     7
100
AcDbVertex
100
AcDb2dVertex
 10
5.945313
 20
2.6875
 30
0.0
  0
VERTEX
  5
140
100
AcDbEntity
  8
VESSEL
  6
CONTINUOUS
 62
     7
100
AcDbVertex
100
AcDb2dVertex
 10
6.277344
 20
2.6875
 30
0.0
  0
VERTEX
  5
141
100
AcDbEntity
  8
VESSEL
  6
CONTINUOUS
 62
     7
100
AcDbVertex
100
AcDb2dVertex
 10
6.275391
 20
2.641602
 30
0.0
  0
VERTEX
  5
142
100
AcDbEntity
  8
VESSEL
  6
CONTINUOUS
 62
     7
100
AcDbVertex
100
AcDb2dVertex
 10
6.548828
 20
2.642578
 30
0.0
  0
VERTEX
  5
143
100
AcDbEntity
  8
VESSEL
  6
CONTINUOUS
 62
     7
100
AcDbVertex
100
AcDb2dVertex
 10
6.551758
 20
2.594727
 30
0.0
  0
VERTEX
  5
144
100
AcDbEntity
  8
VESSEL
  6
CONTINUOUS
 62
     7
100
AcDbVertex
100
AcDb2dVertex
 10
6.552734
 20
2.594727
 30
0.0
  0
SEQEND
  5
145
100
AcDbEntity
  8
VESSEL
  6
CONTINUOUS
 62
     7
  0
POLYLINE
  5
146
100
AcDbEntity
  8
VESSEL
  6
CONTINUOUS
 62
     7
100
AcDb2dPolyline
 66
     1
 10
0.0
 20
0.0
 30
0.0
  0
VERTEX
  5
147
100
AcDbEntity
  8
VESSEL
  6
CONTINUOUS
 62
     7
100
AcDbVertex
100
AcDb2dVertex
 10
5.924805
 20
2.552734
 30
0.0
  0
VERTEX
  5
148
100
AcDbEntity
  8
VESSEL
  6
CONTINUOUS
 62
     7
100
AcDbVertex
100
AcDb2dVertex
 10
7.019531
 20
2.552734
 30
0.0
  0
SEQEND
  5
149
100
AcDbEntity
  8
VESSEL
  6
CONTINUOUS
 62
     7
  0
POLYLINE
  5
14A
100
AcDbEntity
  8
VESSEL
  6
CONTINUOUS
 62
     7
100
AcDb2dPolyline
 66
     1
 10
0.0
 20
0.0
 30
0.0
 40
0.016667
 41
0.016667
  0
VERTEX
  5
14B
100
AcDbEntity
  8
VESSEL
  6
CONTINUOUS
 62
     7
100
AcDbVertex
100
AcDb2dVertex
 10
4.938477
 20
2.771484
 30
0.0
  0
VERTEX
  5
14C
100
AcDbEntity
  8
VESSEL
  6
CONTINUOUS
 62
     7
100
AcDbVertex
100
AcDb2dVertex
 10
4.619141
 20
2.771484
 30
0.0
  0
VERTEX
  5
14D
100
AcDbEntity
  8
VESSEL
  6
CONTINUOUS
 62
     7
100
AcDbVertex
100
AcDb2dVertex
 10
4.621094
 20
2.748047
 30
0.0
  0
SEQEND
  5
14E
100
AcDbEntity
  8
VESSEL
  6
CONTINUOUS
 62
     7
  0
INSERT
  5
19B
100
AcDbEntity
  8
WATER
100
AcDbBlockReference
  2
SHEET_58
 10
1.261579
 20
1.930176
 30
0.0
  0
INSERT
  5
1E7
100
AcDbEntity
  8
WATER
100
AcDbBlockReference
  2
SHEET_59
 10
7.93736
 20
1.930176
 30
0.0
  0
POLYLINE
  5
1E8
100
AcDbEntity
  8
WATER
  6
CONTINUOUS
 62
     5
100
AcDb2dPolyline
 66
     1
 10
0.0
 20
0.0
 30
0.0
 40
0.016667
 41
0.016667
  0
VERTEX
  5
1E9
100
AcDbEntity
  8
WATER
  6
CONTINUOUS
 62
     5
100
AcDbVertex
100
AcDb2dVertex
 10
1.28125
 20
1.84375
 30
0.0
  0
VERTEX
  5
1EA
100
AcDbEntity
  8
WATER
  6
CONTINUOUS
 62
     5
100
AcDbVertex
100
AcDb2dVertex
 10
7.796875
 20
1.84375
 30
0.0
  0
SEQEND
  5
1EB
100
AcDbEntity
  8
WATER
  6
CONTINUOUS
 62
     5
  0
POLYLINE
  5
1EC
100
AcDbEntity
  8
WATER
  6
CONTINUOUS
 62
     5
100
AcDb2dPolyline
 66
     1
 10
0.0
 20
0.0
 30
0.0
  0
VERTEX
  5
1ED
100
AcDbEntity
  8
WATER
  6
CONTINUOUS
 62
     5
100
AcDbVertex
100
AcDb2dVertex
 10
1.424805
 20
1.810547
 30
0.0
  0
VERTEX
  5
1EE
100
AcDbEntity
  8
WATER
  6
CONTINUOUS
 62
     5
100
AcDbVertex
100
AcDb2dVertex
 10
7.671875
 20
1.8125
 30
0.0
  0
SEQEND
  5
1EF
100
AcDbEntity
  8
WATER
  6
CONTINUOUS
 62
     5
  0
POLYLINE
  5
1F0
100
AcDbEntity
  8
VESSEL
  6
CONTINUOUS
 62
     7
100
AcDb2dPolyline
 66
     1
 10
0.0
 20
0.0
 30
0.0
 70
     1
 40
0.016667
 41
0.016667
  0
VERTEX
  5
1F1
100
AcDbEntity
  8
VESSEL
  6
CONTINUOUS
 62
     7
100
AcDbVertex
100
AcDb2dVertex
 10
1.142578
 20
2.716886
 30
0.0
  0
VERTEX
  5
1F2
100
AcDbEntity
  8
VESSEL
  6
CONTINUOUS
 62
     7
100
AcDbVertex
100
AcDb2dVertex
 10
1.147277
 20
2.729268
 30
0.0
  0
VERTEX
  5
1F3
100
AcDbEntity
  8
VESSEL
  6
CONTINUOUS
 62
     7
100
AcDbVertex
100
AcDb2dVertex
 10
1.159197
 20
2.735352
 30
0.0
  0
VERTEX
  5
1F4
100
AcDbEntity
  8
VESSEL
  6
CONTINUOUS
 62
     7
100
AcDbVertex
100
AcDb2dVertex
 10
1.231214
 20
2.727965
 30
0.0
  0
VERTEX
  5
1F5
100
AcDbEntity
  8
VESSEL
  6
CONTINUOUS
 62
     7
100
AcDbVertex
100
AcDb2dVertex
 10
1.241266
 20
2.719965
 30
0.0
  0
VERTEX
  5
1F6
100
AcDbEntity
  8
VESSEL
  6
CONTINUOUS
 62
     7
100
AcDbVertex
100
AcDb2dVertex
 10
1.244141
 20
2.707653
 30
0.0
  0
VERTEX
  5
1F7
100
AcDbEntity
  8
VESSEL
  6
CONTINUOUS
 62
     7
100
AcDbVertex
100
AcDb2dVertex
 10
1.236417
 20
2.696063
 30
0.0
  0
VERTEX
  5
1F8
100
AcDbEntity
  8
VESSEL
  6
CONTINUOUS
 62
     7
100
AcDbVertex
100
AcDb2dVertex
 10
1.223722
 20
2.691522
 30
0.0
  0
VERTEX
  5
1F9
100
AcDbEntity
  8
VESSEL
  6
CONTINUOUS
 62
     7
100
AcDbVertex
100
AcDb2dVertex
 10
1.159197
 20
2.69842
 30
0.0
  0
VERTEX
  5
1FA
100
AcDbEntity
  8
VESSEL
  6
CONTINUOUS
 62
     7
100
AcDbVertex
100
AcDb2dVertex
 10
1.147942
 20
2.702191
 30
0.0
  0
SEQEND
  5
1FB
100
AcDbEntity
  8
VESSEL
  6
CONTINUOUS
 62
     7
  0
POLYLINE
  5
1FC
100
AcDbEntity
  8
VESSEL
  6
CONTINUOUS
 62
     7
100
AcDb2dPolyline
 66
     1
 10
0.0
 20
0.0
 30
0.0
 70
     1
 40
0.016667
 41
0.016667
  0
VERTEX
  5
1FD
100
AcDbEntity
  8
VESSEL
  6
CONTINUOUS
 62
     7
100
AcDbVertex
100
AcDb2dVertex
 10
4.303269
 20
2.481445
 30
0.0
  0
VERTEX
  5
1FE
100
AcDbEntity
  8
VESSEL
  6
CONTINUOUS
 62
     7
100
AcDbVertex
100
AcDb2dVertex
 10
4.316054
 20
2.474066
 30
0.0
  0
VERTEX
  5
1FF
100
AcDbEntity
  8
VESSEL
  6
CONTINUOUS
 62
     7
100
AcDbVertex
100
AcDb2dVertex
 10
4.318359
 20
2.465169
 30
0.0
  0
VERTEX
  5
200
100
AcDbEntity
  8
VESSEL
  6
CONTINUOUS
 62
     7
100
AcDbVertex
100
AcDb2dVertex
 10
4.314885
 20
2.452553
 30
0.0
  0
VERTEX
  5
201
100
AcDbEntity
  8
VESSEL
  6
CONTINUOUS
 62
     7
100
AcDbVertex
100
AcDb2dVertex
 10
4.303269
 20
2.447266
 30
0.0
  0
VERTEX
  5
202
100
AcDbEntity
  8
VESSEL
  6
CONTINUOUS
 62
     7
100
AcDbVertex
100
AcDb2dVertex
 10
4.244583
 20
2.448893
 30
0.0
  0
VERTEX
  5
203
100
AcDbEntity
  8
VESSEL
  6
CONTINUOUS
 62
     7
100
AcDbVertex
100
AcDb2dVertex
 10
4.234425
 20
2.453922
 30
0.0
  0
VERTEX
  5
204
100
AcDbEntity
  8
VESSEL
  6
CONTINUOUS
 62
     7
100
AcDbVertex
100
AcDb2dVertex
 10
4.229492
 20
2.466797
 30
0.0
  0
VERTEX
  5
205
100
AcDbEntity
  8
VESSEL
  6
CONTINUOUS
 62
     7
100
AcDbVertex
100
AcDb2dVertex
 10
4.233241
 20
2.477907
 30
0.0
  0
VERTEX
  5
206
100
AcDbEntity
  8
VESSEL
  6
CONTINUOUS
 62
     7
100
AcDbVertex
100
AcDb2dVertex
 10
4.244583
 20
2.482259
 30
0.0
  0
SEQEND
  5
207
100
AcDbEntity
  8
VESSEL
  6
CONTINUOUS
 62
     7
  0
POLYLINE
  5
208
100
AcDbEntity
  8
VESSEL
  6
CONTINUOUS
 62
     7
100
AcDb2dPolyline
 66
     1
 10
0.0
 20
0.0
 30
0.0
 70
     1
 40
0.016667
 41
0.016667
  0
VERTEX
  5
209
100
AcDbEntity
  8
VESSEL
  6
CONTINUOUS
 62
     7
100
AcDbVertex
100
AcDb2dVertex
 10
7.445313
 20
2.430112
 30
0.0
  0
VERTEX
  5
20A
100
AcDbEntity
  8
VESSEL
  6
CONTINUOUS
 62
     7
100
AcDbVertex
100
AcDb2dVertex
 10
7.442293
 20
2.416538
 30
0.0
  0
VERTEX
  5
20B
100
AcDbEntity
  8
VESSEL
  6
CONTINUOUS
 62
     7
100
AcDbVertex
100
AcDb2dVertex
 10
7.436317
 20
2.411483
 30
0.0
  0
VERTEX
  5
20C
100
AcDbEntity
  8
VESSEL
  6
CONTINUOUS
 62
     7
100
AcDbVertex
100
AcDb2dVertex
 10
7.366887
 20
2.408203
 30
0.0
  0
VERTEX
  5
20D
100
AcDbEntity
  8
VESSEL
  6
CONTINUOUS
 62
     7
100
AcDbVertex
100
AcDb2dVertex
 10
7.35888
 20
2.416694
 30
0.0
  0
VERTEX
  5
20E
100
AcDbEntity
  8
VESSEL
  6
CONTINUOUS
 62
     7
100
AcDbVertex
100
AcDb2dVertex
 10
7.357422
 20
2.430112
 30
0.0
  0
VERTEX
  5
20F
100
AcDbEntity
  8
VESSEL
  6
CONTINUOUS
 62
     7
100
AcDbVertex
100
AcDb2dVertex
 10
7.361352
 20
2.44181
 30
0.0
  0
VERTEX
  5
210
100
AcDbEntity
  8
VESSEL
  6
CONTINUOUS
 62
     7
100
AcDbVertex
100
AcDb2dVertex
 10
7.370944
 20
2.446544
 30
0.0
  0
VERTEX
  5
211
100
AcDbEntity
  8
VESSEL
  6
CONTINUOUS
 62
     7
100
AcDbVertex
100
AcDb2dVertex
 10
7.433143
 20
2.450195
 30
0.0
  0
VERTEX
  5
212
100
AcDbEntity
  8
VESSEL
  6
CONTINUOUS
 62
     7
100
AcDbVertex
100
AcDb2dVertex
 10
7.441878
 20
2.442708
 30
0.0
  0
SEQEND
  5
213
100
AcDbEntity
  8
VESSEL
  6
CONTINUOUS
 62
     7
  0
POLYLINE
  5
214
100
AcDbEntity
  8
VESSEL
  6
CONTINUOUS
 62
     7
100
AcDb2dPolyline
 66
     1
 10
0.0
 20
0.0
 30
0.0
  0
VERTEX
  5
215
100
AcDbEntity
  8
VESSEL
  6
CONTINUOUS
 62
     7
100
AcDbVertex
100
AcDb2dVertex
 10
3.960938
 20
2.525391
 30
0.0
  0
VERTEX
  5
216
100
AcDbEntity
  8
VESSEL
  6
CONTINUOUS
 62
     7
100
AcDbVertex
100
AcDb2dVertex
 10
3.955078
 20
10.591797
 30
0.0
  0
SEQEND
  5
217
100
AcDbEntity
  8
VESSEL
  6
CONTINUOUS
 62
     7
  0
POLYLINE
  5
218
100
AcDbEntity
  8
VESSEL
  6
CONTINUOUS
 62
     7
100
AcDb2dPolyline
 66
     1
 10
0.0
 20
0.0
 30
0.0
 40
0.016667
 41
0.016667
  0
VERTEX
  5
219
100
AcDbEntity
  8
VESSEL
  6
CONTINUOUS
 62
     7
100
AcDbVertex
100
AcDb2dVertex
 10
3.9375
 20
10.731445
 30
0.0
  0
VERTEX
  5
21A
100
AcDbEntity
  8
VESSEL
  6
CONTINUOUS
 62
     7
100
AcDbVertex
100
AcDb2dVertex
 10
3.9375
 20
10.796875
 30
0.0
  0
VERTEX
  5
21B
100
AcDbEntity
  8
VESSEL
  6
CONTINUOUS
 62
     7
100
AcDbVertex
100
AcDb2dVertex
 10
3.970703
 20
10.796875
 30
0.0
  0
VERTEX
  5
21C
100
AcDbEntity
  8
VESSEL
  6
CONTINUOUS
 62
     7
100
AcDbVertex
100
AcDb2dVertex
 10
3.970703
 20
10.734375
 30
0.0
  0
SEQEND
  5
21D
100
AcDbEntity
  8
VESSEL
  6
CONTINUOUS
 62
     7
  0
POLYLINE
  5
21E
100
AcDbEntity
  8
VESSEL
  6
CONTINUOUS
 62
     7
100
AcDb2dPolyline
 66
     1
 10
0.0
 20
0.0
 30
0.0
 70
     1
 40
0.016667
 41
0.016667
  0
VERTEX
  5
21F
100
AcDbEntity
  8
VESSEL
  6
CONTINUOUS
 62
     7
100
AcDbVertex
100
AcDb2dVertex
 10
3.832764
 20
10.766357
 30
0.0
  0
VERTEX
  5
220
100
AcDbEntity
  8
VESSEL
  6
CONTINUOUS
 62
     7
100
AcDbVertex
100
AcDb2dVertex
 10
3.872803
 20
10.72583
 30
0.0
  0
VERTEX
  5
221
100
AcDbEntity
  8
VESSEL
  6
CONTINUOUS
 62
     7
100
AcDbVertex
100
AcDb2dVertex
 10
4.064941
 20
10.72583
 30
0.0
  0
VERTEX
  5
222
100
AcDbEntity
  8
VESSEL
  6
CONTINUOUS
 62
     7
100
AcDbVertex
100
AcDb2dVertex
 10
4.064941
 20
10.700684
 30
0.0
  0
VERTEX
  5
223
100
AcDbEntity
  8
VESSEL
  6
CONTINUOUS
 62
     7
100
AcDbVertex
100
AcDb2dVertex
 10
3.860596
 20
10.701172
 30
0.0
  0
VERTEX
  5
224
100
AcDbEntity
  8
VESSEL
  6
CONTINUOUS
 62
     7
100
AcDbVertex
100
AcDb2dVertex
 10
3.814209
 20
10.748047
 30
0.0
  0
SEQEND
  5
225
100
AcDbEntity
  8
VESSEL
  6
CONTINUOUS
 62
     7
  0
POLYLINE
  5
226
100
AcDbEntity
  8
VESSEL
  6
CONTINUOUS
 62
     7
100
AcDb2dPolyline
 66
     1
 10
0.0
 20
0.0
 30
0.0
 40
0.016667
 41
0.016667
  0
VERTEX
  5
227
100
AcDbEntity
  8
VESSEL
  6
CONTINUOUS
 62
     7
100
AcDbVertex
100
AcDb2dVertex
 10
4.891602
 20
2.642578
 30
0.0
  0
VERTEX
  5
228
100
AcDbEntity
  8
VESSEL
  6
CONTINUOUS
 62
     7
100
AcDbVertex
100
AcDb2dVertex
 10
4.882813
 20
2.648438
 30
0.0
  0
VERTEX
  5
229
100
AcDbEntity
  8
VESSEL
  6
CONTINUOUS
 62
     7
100
AcDbVertex
100
AcDb2dVertex
 10
4.289063
 20
2.644531
 30
0.0
  0
VERTEX
  5
22A
100
AcDbEntity
  8
VESSEL
  6
CONTINUOUS
 62
     7
100
AcDbVertex
100
AcDb2dVertex
 10
3.765625
 20
2.664063
 30
0.0
  0
VERTEX
  5
22B
100
AcDbEntity
  8
VESSEL
  6
CONTINUOUS
 62
     7
100
AcDbVertex
100
AcDb2dVertex
 10
3.246094
 20
2.691406
 30
0.0
  0
VERTEX
  5
22C
100
AcDbEntity
  8
VESSEL
  6
CONTINUOUS
 62
     7
100
AcDbVertex
100
AcDb2dVertex
 10
2.957031
 20
2.707031
 30
0.0
  0
SEQEND
  5
22D
100
AcDbEntity
  8
VESSEL
  6
CONTINUOUS
 62
     7
  0
POLYLINE
  5
22E
100
AcDbEntity
  8
VESSEL
  6
CONTINUOUS
 62
     7
100
AcDb2dPolyline
 66
     1
 10
0.0
 20
0.0
 30
0.0
 40
0.016667
 41
0.016667
  0
VERTEX
  5
22F
100
AcDbEntity
  8
VESSEL
  6
CONTINUOUS
 62
     7
100
AcDbVertex
100
AcDb2dVertex
 10
2.949219
 20
2.706055
 30
0.0
  0
VERTEX
  5
230
100
AcDbEntity
  8
VESSEL
  6
CONTINUOUS
 62
     7
100
AcDbVertex
100
AcDb2dVertex
 10
2.938477
 20
2.700195
 30
0.0
  0
VERTEX
  5
231
100
AcDbEntity
  8
VESSEL
  6
CONTINUOUS
 62
     7
100
AcDbVertex
100
AcDb2dVertex
 10
2.928711
 20
2.682617
 30
0.0
  0
SEQEND
  5
232
100
AcDbEntity
  8
VESSEL
  6
CONTINUOUS
 62
     7
  0
POLYLINE
  5
233
100
AcDbEntity
  8
VESSEL
  6
CONTINUOUS
 62
     7
100
AcDb2dPolyline
 66
     1
 10
0.0
 20
0.0
 30
0.0
 40
0.016667
 41
0.016667
  0
VERTEX
  5
234
100
AcDbEntity
  8
VESSEL
  6
CONTINUOUS
 62
     7
100
AcDbVertex
100
AcDb2dVertex
 10
3.173177
 20
2.694336
 30
0.0
  0
VERTEX
  5
235
100
AcDbEntity
  8
VESSEL
  6
CONTINUOUS
 62
     7
100
AcDbVertex
100
AcDb2dVertex
 10
3.181966
 20
2.686523
 30
0.0
  0
VERTEX
  5
236
100
AcDbEntity
  8
VESSEL
  6
CONTINUOUS
 62
     7
100
AcDbVertex
100
AcDb2dVertex
 10
3.184896
 20
2.673828
 30
0.0
  0
VERTEX
  5
237
100
AcDbEntity
  8
VESSEL
  6
CONTINUOUS
 62
     7
100
AcDbVertex
100
AcDb2dVertex
 10
3.188802
 20
2.685547
 30
0.0
  0
VERTEX
  5
238
100
AcDbEntity
  8
VESSEL
  6
CONTINUOUS
 62
     7
100
AcDbVertex
100
AcDb2dVertex
 10
3.198568
 20
2.692383
 30
0.0
  0
SEQEND
  5
239
100
AcDbEntity
  8
VESSEL
  6
CONTINUOUS
 62
     7
  0
POLYLINE
  5
23A
100
AcDbEntity
  8
VESSEL
  6
CONTINUOUS
 62
     7
100
AcDb2dPolyline
 66
     1
 10
0.0
 20
0.0
 30
0.0
 40
0.016667
 41
0.016667
  0
VERTEX
  5
23B
100
AcDbEntity
  8
VESSEL
  6
CONTINUOUS
 62
     7
100
AcDbVertex
100
AcDb2dVertex
 10
3.421094
 20
2.679213
 30
0.0
  0
VERTEX
  5
23C
100
AcDbEntity
  8
VESSEL
  6
CONTINUOUS
 62
     7
100
AcDbVertex
100
AcDb2dVertex
 10
3.429883
 20
2.671401
 30
0.0
  0
VERTEX
  5
23D
100
AcDbEntity
  8
VESSEL
  6
CONTINUOUS
 62
     7
100
AcDbVertex
100
AcDb2dVertex
 10
3.432813
 20
2.658705
 30
0.0
  0
VERTEX
  5
23E
100
AcDbEntity
  8
VESSEL
  6
CONTINUOUS
 62
     7
100
AcDbVertex
100
AcDb2dVertex
 10
3.436719
 20
2.670424
 30
0.0
  0
VERTEX
  5
23F
100
AcDbEntity
  8
VESSEL
  6
CONTINUOUS
 62
     7
100
AcDbVertex
100
AcDb2dVertex
 10
3.446484
 20
2.67726
 30
0.0
  0
SEQEND
  5
240
100
AcDbEntity
  8
VESSEL
  6
CONTINUOUS
 62
     7
  0
POLYLINE
  5
241
100
AcDbEntity
  8
VESSEL
  6
CONTINUOUS
 62
     7
100
AcDb2dPolyline
 66
     1
 10
0.0
 20
0.0
 30
0.0
 40
0.016667
 41
0.016667
  0
VERTEX
  5
242
100
AcDbEntity
  8
VESSEL
  6
CONTINUOUS
 62
     7
100
AcDbVertex
100
AcDb2dVertex
 10
3.700893
 20
2.665597
 30
0.0
  0
VERTEX
  5
243
100
AcDbEntity
  8
VESSEL
  6
CONTINUOUS
 62
     7
100
AcDbVertex
100
AcDb2dVertex
 10
3.709682
 20
2.657785
 30
0.0
  0
VERTEX
  5
244
100
AcDbEntity
  8
VESSEL
  6
CONTINUOUS
 62
     7
100
AcDbVertex
100
AcDb2dVertex
 10
3.712612
 20
2.645089
 30
0.0
  0
VERTEX
  5
245
100
AcDbEntity
  8
VESSEL
  6
CONTINUOUS
 62
     7
100
AcDbVertex
100
AcDb2dVertex
 10
3.716518
 20
2.656808
 30
0.0
  0
VERTEX
  5
246
100
AcDbEntity
  8
VESSEL
  6
CONTINUOUS
 62
     7
100
AcDbVertex
100
AcDb2dVertex
 10
3.726283
 20
2.663644
 30
0.0
  0
SEQEND
  5
247
100
AcDbEntity
  8
VESSEL
  6
CONTINUOUS
 62
     7
  0
POLYLINE
  5
248
100
AcDbEntity
  8
VESSEL
  6
CONTINUOUS
 62
     7
100
AcDb2dPolyline
 66
     1
 10
0.0
 20
0.0
 30
0.0
 40
0.016667
 41
0.016667
  0
VERTEX
  5
249
100
AcDbEntity
  8
VESSEL
  6
CONTINUOUS
 62
     7
100
AcDbVertex
100
AcDb2dVertex
 10
3.977679
 20
2.655552
 30
0.0
  0
VERTEX
  5
24A
100
AcDbEntity
  8
VESSEL
  6
CONTINUOUS
 62
     7
100
AcDbVertex
100
AcDb2dVertex
 10
3.986468
 20
2.64774
 30
0.0
  0
VERTEX
  5
24B
100
AcDbEntity
  8
VESSEL
  6
CONTINUOUS
 62
     7
100
AcDbVertex
100
AcDb2dVertex
 10
3.989397
 20
2.635045
 30
0.0
  0
VERTEX
  5
24C
100
AcDbEntity
  8
VESSEL
  6
CONTINUOUS
 62
     7
100
AcDbVertex
100
AcDb2dVertex
 10
3.993304
 20
2.646763
 30
0.0
  0
VERTEX
  5
24D
100
AcDbEntity
  8
VESSEL
  6
CONTINUOUS
 62
     7
100
AcDbVertex
100
AcDb2dVertex
 10
4.003069
 20
2.653599
 30
0.0
  0
SEQEND
  5
24E
100
AcDbEntity
  8
VESSEL
  6
CONTINUOUS
 62
     7
  0
POLYLINE
  5
24F
100
AcDbEntity
  8
VESSEL
  6
CONTINUOUS
 62
     7
100
AcDb2dPolyline
 66
     1
 10
0.0
 20
0.0
 30
0.0
 40
0.016667
 41
0.016667
  0
VERTEX
  5
250
100
AcDbEntity
  8
VESSEL
  6
CONTINUOUS
 62
     7
100
AcDbVertex
100
AcDb2dVertex
 10
4.285714
 20
2.643276
 30
0.0
  0
VERTEX
  5
251
100
AcDbEntity
  8
VESSEL
  6
CONTINUOUS
 62
     7
100
AcDbVertex
100
AcDb2dVertex
 10
4.294503
 20
2.635463
 30
0.0
  0
VERTEX
  5
252
100
AcDbEntity
  8
VESSEL
  6
CONTINUOUS
 62
     7
100
AcDbVertex
100
AcDb2dVertex
 10
4.297433
 20
2.622768
 30
0.0
  0
VERTEX
  5
253
100
AcDbEntity
  8
VESSEL
  6
CONTINUOUS
 62
     7
100
AcDbVertex
100
AcDb2dVertex
 10
4.301339
 20
2.634487
 30
0.0
  0
VERTEX
  5
254
100
AcDbEntity
  8
VESSEL
  6
CONTINUOUS
 62
     7
100
AcDbVertex
100
AcDb2dVertex
 10
4.311105
 20
2.641323
 30
0.0
  0
SEQEND
  5
255
100
AcDbEntity
  8
VESSEL
  6
CONTINUOUS
 62
     7
  0
POLYLINE
  5
256
100
AcDbEntity
  8
VESSEL
  6
CONTINUOUS
 62
     7
100
AcDb2dPolyline
 66
     1
 10
0.0
 20
0.0
 30
0.0
 40
0.016667
 41
0.016667
  0
VERTEX
  5
257
100
AcDbEntity
  8
VESSEL
  6
CONTINUOUS
 62
     7
100
AcDbVertex
100
AcDb2dVertex
 10
4.574777
 20
2.646624
 30
0.0
  0
VERTEX
  5
258
100
AcDbEntity
  8
VESSEL
  6
CONTINUOUS
 62
     7
100
AcDbVertex
100
AcDb2dVertex
 10
4.583566
 20
2.638811
 30
0.0
  0
VERTEX
  5
259
100
AcDbEntity
  8
VESSEL
  6
CONTINUOUS
 62
     7
100
AcDbVertex
100
AcDb2dVertex
 10
4.586496
 20
2.626116
 30
0.0
  0
VERTEX
  5
25A
100
AcDbEntity
  8
VESSEL
  6
CONTINUOUS
 62
     7
100
AcDbVertex
100
AcDb2dVertex
 10
4.590402
 20
2.637835
 30
0.0
  0
VERTEX
  5
25B
100
AcDbEntity
  8
VESSEL
  6
CONTINUOUS
 62
     7
100
AcDbVertex
100
AcDb2dVertex
 10
4.600167
 20
2.644671
 30
0.0
  0
SEQEND
  5
25C
100
AcDbEntity
  8
VESSEL
  6
CONTINUOUS
 62
     7
  0
POLYLINE
  5
25D
100
AcDbEntity
  8
VESSEL
  6
CONTINUOUS
 62
     7
100
AcDb2dPolyline
 66
     1
 10
0.0
 20
0.0
 30
0.0
 40
0.016667
 41
0.016667
  0
VERTEX
  5
25E
100
AcDbEntity
  8
VESSEL
  6
CONTINUOUS
 62
     7
100
AcDbVertex
100
AcDb2dVertex
 10
4.896484
 20
2.633789
 30
0.0
  0
VERTEX
  5
25F
100
AcDbEntity
  8
VESSEL
  6
CONTINUOUS
 62
     7
100
AcDbVertex
100
AcDb2dVertex
 10
4.896484
 20
2.628906
 30
0.0
  0
SEQEND
  5
260
100
AcDbEntity
  8
VESSEL
  6
CONTINUOUS
 62
     7
  0
POLYLINE
  5
261
100
AcDbEntity
  8
VESSEL
  6
CONTINUOUS
 62
     7
100
AcDb2dPolyline
 66
     1
 10
0.0
 20
0.0
 30
0.0
 40
0.016667
 41
0.016667
  0
VERTEX
  5
262
100
AcDbEntity
  8
VESSEL
  6
CONTINUOUS
 62
     7
100
AcDbVertex
100
AcDb2dVertex
 10
2.545898
 20
2.736328
 30
0.0
  0
VERTEX
  5
263
100
AcDbEntity
  8
VESSEL
  6
CONTINUOUS
 62
     7
100
AcDbVertex
100
AcDb2dVertex
 10
2.545898
 20
2.757813
 30
0.0
  0
VERTEX
  5
264
100
AcDbEntity
  8
VESSEL
  6
CONTINUOUS
 62
     7
100
AcDbVertex
100
AcDb2dVertex
 10
2.8125
 20
2.754883
 30
0.0
  0
VERTEX
  5
265
100
AcDbEntity
  8
VESSEL
  6
CONTINUOUS
 62
     7
100
AcDbVertex
100
AcDb2dVertex
 10
2.811523
 20
2.738281
 30
0.0
  0
SEQEND
  5
266
100
AcDbEntity
  8
VESSEL
  6
CONTINUOUS
 62
     7
  0
POLYLINE
  5
267
100
AcDbEntity
  8
0
  6
CONTINUOUS
 62
     7
100
AcDb2dPolyline
 66
     1
 10
0.0
 20
0.0
 30
0.0
 40
0.016667
 41
0.016667
  0
VERTEX
  5
268
100
AcDbEntity
  8
0
  6
CONTINUOUS
 62
     7
100
AcDbVertex
100
AcDb2dVertex
 10
3.955078
 20
10.606445
 30
0.0
  0
VERTEX
  5
269
100
AcDbEntity
  8
0
  6
CONTINUOUS
 62
     7
100
AcDbVertex
100
AcDb2dVertex
 10
3.955078
 20
10.578125
 30
0.0
  0
SEQEND
  5
26A
100
AcDbEntity
  8
0
  6
CONTINUOUS
 62
     7
  0
POLYLINE
  5
26B
100
AcDbEntity
  8
0
  6
CONTINUOUS
 62
     7
100
AcDb2dPolyline
 66
     1
 10
0.0
 20
0.0
 30
0.0
 40
0.016667
 41
0.016667
  0
VERTEX
  5
26C
100
AcDbEntity
  8
0
  6
CONTINUOUS
 62
     7
100
AcDbVertex
100
AcDb2dVertex
 10
6.634766
 20
2.59375
 30
0.0
  0
VERTEX
  5
26D
100
AcDbEntity
  8
0
  6
CONTINUOUS
 62
     7
100
AcDbVertex
100
AcDb2dVertex
 10
6.634766
 20
2.634766
 30
0.0
  0
VERTEX
  5
26E
100
AcDbEntity
  8
0
  6
CONTINUOUS
 62
     7
100
AcDbVertex
100
AcDb2dVertex
 10
6.655273
 20
2.634766
 30
0.0
  0
VERTEX
  5
26F
100
AcDbEntity
  8
0
  6
CONTINUOUS
 62
     7
100
AcDbVertex
100
AcDb2dVertex
 10
6.654785
 20
2.592773
 30
0.0
  0
SEQEND
  5
270
100
AcDbEntity
  8
0
  6
CONTINUOUS
 62
     7
  0
POLYLINE
  5
271
100
AcDbEntity
  8
0
  6
CONTINUOUS
 62
     7
100
AcDb2dPolyline
 66
     1
 10
0.0
 20
0.0
 30
0.0
 40
0.016667
 41
0.016667
  0
VERTEX
  5
272
100
AcDbEntity
  8
0
  6
CONTINUOUS
 62
     7
100
AcDbVertex
100
AcDb2dVertex
 10
6.688477
 20
2.595215
 30
0.0
  0
VERTEX
  5
273
100
AcDbEntity
  8
0
  6
CONTINUOUS
 62
     7
100
AcDbVertex
100
AcDb2dVertex
 10
6.689453
 20
2.613281
 30
0.0
  0
VERTEX
  5
274
100
AcDbEntity
  8
0
  6
CONTINUOUS
 62
     7
100
AcDbVertex
100
AcDb2dVertex
 10
6.943848
 20
2.613281
 30
0.0
  0
VERTEX
  5
275
100
AcDbEntity
  8
0
  6
CONTINUOUS
 62
     7
100
AcDbVertex
100
AcDb2dVertex
 10
6.943848
 20
2.59082
 30
0.0
  0
SEQEND
  5
276
100
AcDbEntity
  8
0
  6
CONTINUOUS
 62
     7
  0
POLYLINE
  5
277
100
AcDbEntity
  8
0
  6
CONTINUOUS
 62
     7
100
AcDb2dPolyline
 66
     1
 10
0.0
 20
0.0
 30
0.0
 40
0.016667
 41
0.016667
  0
VERTEX
  5
278
100
AcDbEntity
  8
0
  6
CONTINUOUS
 62
     7
100
AcDbVertex
100
AcDb2dVertex
 10
5.922852
 20
2.660156
 30
0.0
  0
VERTEX
  5
279
100
AcDbEntity
  8
0
  6
CONTINUOUS
 62
     7
100
AcDbVertex
100
AcDb2dVertex
 10
6.272461
 20
2.660156
 30
0.0
  0
SEQEND
  5
27A
100
AcDbEntity
  8
0
  6
CONTINUOUS
 62
     7
  0
ENDSEC
  0
SECTION
  2
OBJECTS
  0
DICTIONARY
  5
C
100
AcDbDictionary
  3
ACAD_GROUP
350
D
  3
ACAD_MLINESTYLE
350
1B
  0
DICTIONARY
  5
D
102
{ACAD_REACTORS
330
C
102
}
100
AcDbDictionary
  0
DICTIONARY
  5
1B
102
{ACAD_REACTORS
330
C
102
}
100
AcDbDictionary
  3
STANDARD
350
1C
  0
MLINESTYLE
  5
1C
102
{ACAD_REACTORS
330
1B
102
}
100
AcDbMlineStyle
  2
STANDARD
 70
     0
  3

 62
   256
 51
90.0
 52
90.0
 71
     2
 49
0.5
 62
   256
  6
BYLAYER
 49
-0.5
 62
   256
  6
BYLAYER
  0
ENDSEC
  0
EOF
UOUS
 62
     1
100
AcDbVertex
100
AcDb2dVertex
 10
6.943848
 20
2.613281
 30
0.0
  0
VERTEX
  5
27E
100
AcDbEntity
  8
0
  6
CONTINUOUS
 62
     1
100
AcDbVertex
100
AcDb2dVertex
 10
6.943848
 20
2.59082
 30
0.0
  0
SEQEND
  5
27F
100
AcDbEntity
  8
0
  6
CONTINUOUS
 62
     1
  0
ENDSEC
  0
SECTION
  2
OBJECTS
  0
DICTIONARY
  5
C
100
AcDbDictionary
  3
ACAD_GROUP
350
D
  3
ACAD_MLINESTYLE
350
1B
  0
DICTIONARY
  5
D
102
{ACAD_REACTORS
330
C
102
}
100
AcDbDictionary
  0
DICTIONARY
  5
1B
102
{ACAD_REACTORS
330
C
102
}
100
AcDbDictionary
  3
STANDARD
350
1C
  0
MLINESTYLE
  5
1C
102
{ACAD_REACTORS
330
1B
102
}
100
AcDbMlineStyle
  2
STANDARD
 70
     0
  3

 62
   256
 51
90.0
 52
90.0
 71
     2
 49
0.5
 62
   256
  6
BYLAYER
 49
-0.5
 62
   256
  6
BYLAYER
  0
ENDSEC
  0
EOF
